Doves - The Man Who Told Everything Chords & Tabs

 

The Man Who Told Everything Chords & Tabs

Doves Chords & Tabs

Version: 1 Type: Tab 0 ratings
1 star 2 stars 3 stars 4 stars 5 stars
comments

The Man Who Told Everything Tab

   
the man who told everything - doves

got really really bored of seeing the wrong version of this song everywhere so i decided 
put the correct version up (at least i hope its correct)
the wrong versions start with 2 bars of eminor???? 6/8 not 4/4!

this is the acoustic part only, will tab the second guitar soon
NO CAPO REQUIRED!

intro

  Fminor               G#major
e-1-1-1-1-1-1--1-1-1-1-4-4-4-4-4-4--4-4-4-4-|
D-1-1-1-1-1-1--1-1-1-1-4-4-4-4-4-4--4-4-4-4-|
G-1-1-1-1-1-1--1-1-1-1-5-5-5-5-5-5--5-5-5-5-|
B-2-2---2---2--2---2---6-6---6---6--6---6---|
A-2-2---2---2--2---2---6-6---6---6--6---6---|
E-1-1---1---1--1---1---4-4---4---4--4---4---|
[ Tab from: http://www.guitartabs.cc/tabs/d/doves/the_man_who_told_everything_tab.html ]
  C#major                        C7
e-9--9--9--9--9--9---9--9--9--9--8--8--8-8--8-8---8--8-8--8-|
D-9--9--9--9--9--9---9--9--9--9--8--8--8-8--8-8---8--8-8--8-|
G-10-10-10-10-10-10--10-10-10-10-9--9--9-9--9-9---9--9-9--9-|
B-11-11----11----11--11----11----8--8----8----8---8----8----|
A-11-11----11----11--11----11----10-10---10---10--10---10---|
E-9--9-----9-----9---9-----9-----8--8----8----8---8----8----|

repeat untill "get out of bed, pick up the phone..."

then play...

e--------------------------------------|
D--------------------------------------|
G------8-8-8-8-------6-6-6-6-----------|
B------8-8-8-8-------6-6-6-6-----------|
A--4-4-6-6-6-6---6-6-4-4-4-4---4-4-4-4-|
E-6-6-----------4-4-----------2-2-3-3--|

e--------------------------------------|
D--------------------------------------|
G-5-5-5-5--5-5--5-5-5-5--5-5-----------|     play twice
B-5-5-5-5--5-5--5-5-5-5--5-5-----------|
A-3-3-3-3--3-3--3-3-3-3--3-3-----------|
E--------------------------------------|

hope that sounds better, any corrections/questions email alexmac540@aol.com
more tabs on the way
Comments