Doves - Sea Song Chords & Tabs

 

Sea Song Chords & Tabs

Doves Chords & Tabs

Version: 1 Type: Tab 0 ratings
1 star 2 stars 3 stars 4 stars 5 stars
comments

Sea Song Tab

   
DOVES - Sea Song

transcriptor: gazz@budweiser.com

Bm (799777) 
A# (688766)
F  (-33210)
c  (-32010)

|-------------|-------------|-------------|---------------|-
|-------------|-------------|-------------|---------------|-
|-9-----------|-------8-----|-7-----------|---------------|-
|---7-------7-|-----7---7---|---5-------5-|--------9---7--|-
|-----7---7---|---6-------6-|-------6-----|-8---6---------|-
|-------0-----|-0-----------|-----0---0---|---------------|-
[ Tab from: http://www.guitartabs.cc/tabs/d/doves/sea_song_tab.html ]
|-------------|-------------|-------------|---------------|-
|-------------|-------------|-------------|---------------|-
|-9-----------|-------------|-------------|---------------|-
|---7-------7-|-----7-----7-|-----5-----5-|-----7---7---7-|-
|-----7---7---|---6-----6---|-6-5---6-5---|---------------|-
|-------0-----|-8-----8-----|-8-----8-----|---------------|-


Dm
Gm
A#
C  and then slide up...(-43-2-)

|-------------|--------------|-------------|-------------|------------
|-------------|--------------|-------------|-------------|------------
|-------------|--------------|-------------|-------------|------------
|-7-----------|repeat several|-7-----------|-------------|-----------5
|---6-5---5-6-|--times-------|---6-5---5-6-|---6-5---5-6-|---5-6---6--
|-------5-----|--------------|-------5-----|-------5-----|-5-----5----

Comments