Doves - Reprise Chords & Tabs

 

Reprise Chords & Tabs

Doves Chords & Tabs

Version: 1 Type: Tab 0 ratings
1 star 2 stars 3 stars 4 stars 5 stars
comments

Reprise Tab

   
          band:doves
          song:reprise
          tabbed by:slaughter!!!!!!!!!!!!!!!
          
          
          Tuning:EADGBE
          
          
          Gtr.1 (acous.)
          -12-------12-------12-------12-------12-------12-------11-------11-------
          ----14-------14-------12-------12-------14-------14-------13-------13----
          -------13-------13-------13-------13-------14-------14-------13-------13-
          -------------------------------------------------------------------------
          -------------------------------------------------------------------------
          ------------------------------------------------------------------------- x6
          
          
          finish on C#5 (x466xx)
          
          
          Gtr.2 (clean elec.-starts after 1 1/2 times of gtr.1 riff)
          --------------------------------------------------------------------------
          -5---------5--------4--------4------9\-5--------5-------5--------5--------
          ------6---------6--------5--------5---------6-------6--------4--------4---
          ----7----7----7---7----6---6----6---------6---6---6---6----6---6----6---6-
          --------------------------------------------------------------------------
          --------------------------------------------------------------------------
          
          
          -5--------5-------------------------------------------------------4--------
          ------5--------5---4-------------------5--------5--------5-------------5---
          ----6---6----6---6------5---6^5---5---------6--------6--------4------------
          ----------------------6---6-----6----6----6---6----6---6----6---6----6---6-
          ---------------------------------------------------------------------------
          ---------------------------------------------------------------------------
          
          
          -5---------------------------------------------------------------------------
          ----------5--------4--------4------9\-5--------5-------5-----------------5---
          ------6--------6--------5--------5---------6-------6--------4----4^6^4---4---
          ----7---7----7---7----6---6----6---------6---6---6---6----6----6-------6---6-
          -----------------------------------------------------------------------------
          -----------------------------------------------------------------------------
          
          
          -----------------------------------------------------------------------
          -5--------5----5-----4-4-4-4---4---5--------5--------5--------5--------
          ------6------------6-6-6-6-5-5-5-5------6--------6--------4--------4---
          ----7---7----7---7-6---6-6-6-6-6-6----6---6----6---6----6---6----6---6-
          -----------------------------------------------------------------------
          -----------------------------------------------------------------------
          
          
          -------------------------------------
          -5--------5--------4--------4--------
          ------6--------6--------5--------5---
          ----7---7----7---7----6---6----6---6-
          -------------------------------------
          -------------------------------------
          
          
          finish on C#5 (x466xx)
          
          
          If you wanna email me, my address is s_laughter_uk@yahoo.co.uk
          Please visit my website.
          http://www.homestead.com/slaughtertabs
[ Tab from: http://www.guitartabs.cc/tabs/d/doves/reprise_tab.html ]
Comments