Doves - Pouding Chords & Tabs

 

Pouding Chords & Tabs

Doves Chords & Tabs

Version: 1 Type: Tab 0 ratings
1 star 2 stars 3 stars 4 stars 5 stars
comments

Pouding Tab

   
Doves 'Pounding'
Album The Last Broadcast
comments, write to paco_narrador@yahoo.com
Truly a great, great song...

Intro

Guitar 2

E- feed back ----(4)~~~~~~~~~~~~~~~~~~~~~~~~~~~------------------------
B- feed back ----(4)~~~~~~~~~~~~~~~~~~~~~~~~~~~------------------------
G- feedback -----(6)~~~~~~~~~~~~~~~~~~~~~~~~~~~------------------------
D----------------------------------------------------------------------
A----------------------------------------------------------------------
E----------------------------------------------------------------------

Feedback fades, drums enter at 1 tempo. 

Guitar 1 enters sustaining C sus one round until Guitar 2 enters

	C sus (repeteadly)
E-------x--------------------------------------------------------------
B-------x--------------------------------------------------------------
G-------10-------------------------------------------------------------
D-------11-------------------------------------------------------------
A-------11-------------------------------------------------------------
E-------9--------------------------------------------------------------

_______________________________________________________________________

1 Verse
Guitar 2

	C sus  	F min		F sus (repeteadly)
E-------x--...----1---...-----2----------------------------------------
B-------6--...----1---...-----2----------------------------------------
G-------6--...----1---...-----3----------------------------------------
D-------6--...----3---...-----4----------------------------------------
A------4--...----3---...-----4-----------------------------------------
E-------4--...----1---...-----2----------------------------------------


Guitar 1 

    C sus                            F min			 F sus
E-------x----x----x----x---x---...----x----x----x----...-----x----x----
B-------x----x----x----x---x---...----9----9----9----...-----11---11---
G------10---10---10---10---10--...----10---10---10---...-----11---11---
D------11---11---11---11---11--...----10---10---10---...-----11---11---
A------11---11---11---11---11--...----8----8----8----...-----9----9----
E-------9-----9----9----9----9--...----8----8----8----...-----9----9---

C sus      F min  F sus	      C sus
I can't stand by, and see you destroyed

C sus    F min   F sus	       C sus
I can't be here, and watch you burn up

C sus        F min F sus	  C sus
Lie for the moment and act as a decoy

C sus      F min   F sus	  C sus
So does it matter if I given in easy?

Guitar 1
  Dsus			     G sus
So why, is it so hard to get by?

Guitar 2

So why, is it so hard to get by?

E----------------------------------------------------------------------
B---2-2-2-2-2-2-2-2-2-2-2-2-2-1-1-1-1-1-1-1-1-1-1-1-1-1-1--------------
G-----------------------------------------------------------3----1-----
D----------------------------------------------------------------------
A----------------------------------------------------------------------
E----------------------------------------------------------------------


(Both Guitars play the same chords, except Guitar 1 goes and octave 
higher. Guitar 2 plays chords repeatedly, and Guitar 1 at drum tempo)

And I say,

F sus     G sus   F min
We so down

Bur it's now or never baby

F sus     G sus   F min 
We don't mind

If this don't last forever

F sus     G sus   F min 
See the light

But it won't last forever

F sus     G sus   F min
Seize the time
[ Tab from: http://www.guitartabs.cc/tabs/d/doves/pouding_tab.html ]
Guitar 2
Cause it's now or never, baby
E----------------------------------------------------------------------
B----------------------------------------------------------------------
G----------------------------------------------------------------------
D----------------------------------------------------------------------
A-----4----------------------------------------------------------------
E-------------1------2------1-----2-----1------------------------------

2 Verse
(Both guitar go back to play the same way)

C sus              F min  F sus	      
Let's leave at the sunrise

F sus              C sus
Let's live by the ocean

C sus      F min  F sus	      C sus
I don't mind if we, never come home (at all)

C sus      F min   F sus   
Steal the morning

C sus       
So set in motion

C sus    F min   F sus   
In and out of love

         C sus
and institutions

        D sus 			   G sus
Cause I know this can't last for long

Guitar 2

E-----------------------------3-3-3-3-3-3-3-3--------------------------
B--2-2-2-2-2-2-2-2-2-2-2-2-2-------------------------------------------
G---------------------------------------------1-1-1-1-1-1-1-1-1-1------
D------------------------------------------------------------------3--1
A----------------------------------------------------------------------
E----------------------------------------------------------------------

(Chorus goes the same way on both guitars, except the last line, where 
both guitars play repeatedly, just before the solo)


We so down
Bur it's now or never baby

We don't mind
If this don't last forever

See the light
But it won't last forever

Seize the time
Cause it's now or never, baby (both guitars play repeatedly)

Solo

Guitar 2, plays Verse's chords four times

Guitar 1, The Edge's style solo (sharp and repeatedly guitar sound)

      C sus     F min  Fsus      C sus
E------13--.................-----9---.......................-----------
B------12--.................-----9---.......................-----------
G------13------------------------10------------------------------------
D----------------------------------------------------------------------
A----------------------------------------------------------------------
E----------------------------------------------------------------------

After the first guitar solo
Guitar 2 (13times)

E----------------------------------------------------------------------
B-----6-6-6-6-6-6-6-6-6-6----11-11-11----------------------------------
G-----6-6-6-6-6-6-6-6-6-6----11-11-11----------------------------------
D-----6-6-6-6-6-6-6-6-6-6----11-11-11----------------------------------
A----------------------------------------------------------------------
E----------------------------------------------------------------------

Guitar 1                          Just before entering the second solo
E----------------------------------------------------------------------
B----------------------------------2-2-2-2-2-----2---------------------
G---------6 ~~~~~~~~~~~~~~~~~~~~---------------3---2-------------------
D----------------------------------------------------------------------
A----------------------------------------------------------------------
E----------------------------------------------------------------------


(Both Guitars)
     D sus			Gsus
So why, is it so hard to get by?

And I say, ahh....
Guitar 1 (plays chords from chorus)

Guitar 2 (plays the next sequence 2 times, equivalent for two chorus
verses):
	(This 2 times)	(4 times)
E---14-13--------14-13-----------16------------------------------------
B---------14-----------14-----------13-14--13--------------------------
G------------13-----------13-------------------------------------------
D----------------------------------------------------------------------
A----------------------------------------------------------------------
E----------------------------------------------------------------------

(remaining chorus verses) 

 
We so down
And this can't last forever

We don't mind
                          Fmin
Comments