Doves - Man Who Told Everything Chords & Tabs

 

Man Who Told Everything Chords & Tabs

Doves Chords & Tabs

Version: 1 Type: Tab 0 ratings
1 star 2 stars 3 stars 4 stars 5 stars
comments

Man Who Told Everything Tab

   
-DOVES - The Man Who Told Everything 
transcrpitor: asthriro@netscapeonline.co.uk



Capo on 1st fret

Em(022000)
G (320003)
C (-32010)
B (-24442)

|-5---5-------|-------------|-------------|---------------|-
|---3---------|-5---5-------|-------------|---------------|-
|-------5-----|---4---4-----|-------------|---------------|-
|-------------|---2---4-----|-------------|---------------|-
|-------------|-------------|-------------|---------------|-
|-------------|-------------|-------------|---------------|-
[ Tab from: http://www.guitartabs.cc/tabs/d/doves/man_who_told_everything_tab.html ]
....rather than going on like this with the exact plucking,
i'll leave ye with the basic chord shapes which can be strummed
anyway...

(53500-)
(-5420-)
(35400-)
(-32010)
(13200-)
(23400-)
(-6444-)


lead bits in the chorus...
|-------------|-------------|-------------|---------------|-
|-------------|-------------|-------------|---------------|-
|-------------|-------------|-------------|---------------|-
|-----5-------|-----5-------|-----6-------|-----5---------|-
|---6---------|---4---------|---6---------|---5-----------|-
|-4-----------|-4-----------|-4-----------|-3-------------|-


Comments