Doves - M Chords & Tabs

 

M Chords & Tabs

Doves Chords & Tabs

Version: 1 Type: Tab 0 ratings
1 star 2 stars 3 stars 4 stars 5 stars
comments

M Tab

Doves - M62 song

Capo on the 2nd fret
tune the low E string down to D


   '   .   '   .      
||------------------||
||-0----------------||
||.--------0-------.||
||.----2-------2---.||
||----------------2-||
||-2----------------||


 
   '   .   '   .      '   .   '   .      '   .   '   .      '   .   '   .    
||------------------|------------------|------------------|------------------|
||-0----------------|-----0-------0----|-----2------------|-----1------------|
||.--------0--------|-----0-------0----|-------------2----|-------------2----|
||.----2-------2----|------------------|-----2----------2-|----------------2-|
||----------------2-|------------------|-0-------0--------|-0-------0--------|
||-2----------------|-2-------5--------|------------------|------------------|
   Moonshine,                            I'm waiting for a  love that never 
   Moonshine,                            wishing for a      time that never 

  '   .   '   .      '   .   '   .      '   .   '   .      '   .   '   .    
|------------------|-2p0--------------|------------------|------------------||
|-----0------------|---------0--------|-----2------------|-----1------------||
|-------------0----|-------------0----|-------------2----|-------------2---.||
|----------------2-|----------------2-|-----2----------2-|----------------2.||
|------------------|------------------|-0-------0--------|-0-------0--------||
|-2----------------|------------------|------------------|------------------||
  comes
  was


   '   .   '   .      '   .   '   .      '   .   '   .      '   .   '   .    
||------------------|------------------|------------------|------------------||
||1-----------------|-1----------------|-1-------3--------|-1----------------||
||.----0------------|(0)------0--------|------------------|---------0-------.||
||.-----------------|------------------|------------------|-----------------.||
||-0-----------3----|-----3-------3p0--|-0-------2--------|-0---3-------3p0--||
||------------------|------------------|------------------|------------------||
I'm waiting for a    time,           for truth to          call
I'm waiting for a    sign,           to show me            all
                                                           __________________
                                                          | 1.
  '   .   '   .      '   .   '   .      '   .   '   .      '   .   '   .   
|------------------|------------------|------------------||----(0)-----------||
|1-----------------|-1----------------|------------------||-----0------------||
|-----0------------|------------------|------------------||.------------0---.||
|------------------|------------------|------------------||.--------------2-.||
|-0-----------3----|------------------|------------------||------------------||
|------------------|------------------|---------0--------||-2----------------||
 
  waiting for my     love



Verse 2

Moonshine, drinking to a love that's gone on by
Moonshine, look into the stars as cars go by
[ Tab from: http://www.guitartabs.cc/tabs/d/doves/m_tab.html ]
 _____________________               
| 2.
  '   .   '   .      '   .   '   .      '   .   '   .      '   .   '   .    
|------------------|------------------|------------------|------------------|
|-----0------------|-----0-------0----|-----2------------|-----1------------|
|-------------0----|-----0-------0----|-------------2----|-------------2----|
|-----2----------2-|------------------|-----2----------2-|----------------2-|
|------------------|------------------|-0-------0--------|-0-------0--------|
|-2----------------|-2-------5--------|------------------|------------------|


  '   .   '   .      '   .   '   .      '   .   '   .      '   .   '   .    
|------------------|-2p0--------------|------------------|-----3-------0----|
|-----0------------|-------------0----|-----2------------|-----1------------|
|--------------0---|---------0--------|-------------2----|-------------2----|
|-------------2--2-|----------------2-|-----2----------2-|---------2------2-|
|------------------|------------------|-0-------0--------|-0----------------|
|-2----------------|------------------|------------------|------------------|


  '   .   '   .      '   .   '   .      '   .   '   .      '   .   '   .    
|------------------|-2p0--------------|------------------|------------------|
|-----0------------|-------------0----|-----2------------|-1----------------|
|-------------0----|---------0--------|-------------2----|---------2--------|
|----------------2-|----------------2-|-----2----------2-|-----2-------2----|
|------------------|------------------|-0-------0--------|-0-------------0--|
|-2----------------|------------------|------------------|------------------|



  '   .   '   .      '   .   '   .      '   .   '   .      '   .   '   .    
|------------------|------------------|------------------|------------------|
|-----0------------|---------0--------|-----2------------|-1----------------|
|-------------0----|-------------0----|-------------2----|---------2--------|
|----------------2-|-0h2------------2-|-----2----------2-|-----2-------2----|
|------------------|------------------|-0-------0--------|-0--------------0-|
|-2----------------|------------------|------------------|------------------|


Coda

   '   .   '   .      '   .   '   .      '   .   '   .      '   .   '   .    
||------------------|------------------|------------------|------------------||
||---------0--------|-1----------------|-1-------3--------|-1----------------||
||.2----------------|---------0--------|------------------|---------2-------.||
||.-----------------|------------------|------------------|-----------------.||
||-0-------2--------|-3---3-------3p0--|-0-------2--------|-0---3-------3p0--||
||------------------|------------------|------------------|------------------||
   waiting for a      love
   waiting for my     love
   waiting for my     love

  '   .   '   .      '   .   '   .      '   .   '   .      '   .   '   .    
|------------------|-0----------------|------------------|------------------||
|---------0--------|------------------|-2----------------|-1----------------||
|-------------0----|-----0------------|-----2-------0----|-----0------------||
|---------2--------|------------------|-2-------2--------|---------2--(0-2)-||
|-----2------------|------------------|------------------|-0----------------||
|-2----------------|---------2---5----|------------------|------------------||


  Moonshine,                        I'm waiting for a love that never comes



tina reyes tassiopoulos



Comments