Doves - Last Broadcast Chords & Tabs

 

Last Broadcast Chords & Tabs

Doves Chords & Tabs

Version: 1 Type: Tab 0 ratings
1 star 2 stars 3 stars 4 stars 5 stars
comments

Last Broadcast Tab

DOVES  -  "The Last Broadcast" (2002).

This is how DOVES play this song live.

CAPO Fret V.


Intro :

--0-------3--0-----0------0----------|
--1-------------3-----1---1----------|
--2-----------------------2----------|
--2-----------------------2----------|
--0-----------------------0----------|
--0-----------------------0----------|


Chorus Fig1. :

-------------------------------------------------|
-----1--------------------1-----------1------1---|
---------3---0--0--2----------2------------------|
-----2--------------------3-----------2----------|
--0----------2--2--2---3---------3--------2------|
-------------------------------------------------|


Verses Fig2. :
[ Tab from: http://www.guitartabs.cc/tabs/d/doves/last_broadcast_tab.html ]
Play this part 3 times....
------------------------------------------------------------------------------|
----0-----0-----0------1-----1-----1------1--3--1---------1-----1-----1----1--|
-------0-----0------------2-----2------------------1(h)2-----------0----------|
----2-----2-----2------2-----2-----2------3---------------------2-------------|
-2------------------0------------------3---------------------3-----------2----|
------------------------------------------------------------------------------|

... and then Fig3.
--------------------------------------------------------------------------------------------|
----0-----0-----0------1-----1-----1-----1-----------------1------------------1-------------|
-------0-----0------------2-----2-----------2--0--0--2-----------0--0--2---------2--0--0--2-|
----2-----2-----2------2-----2-----2-----3-----------------3--2---------------3-------------|
-2------------------0-----------------3--------3--3--3--3--------3--3--3---3--------3--3--3-|
--------------------------------------------------------------------------------------------|


End :

-----------------------------------------------------------------------0--|
----0-----0-----0------1-----1-----1-----1-----1-----1-----4--3--1--1--1--|
-------0-----0------------2-----2-----------2-----2-----2--------------2--|
----2-----2-----2------2-----2-----2-----------------------------1--1--2--|
-2------------------0-----------------3--3-----3-----3-----3-----------0--|
-----------------------------------------------------------------------0--|
Comments