Dover - Recluser Chords & Tabs

 

Recluser Chords & Tabs

Dover Chords & Tabs

Version: 1 Type: Tab 0 ratings
1 star 2 stars 3 stars 4 stars 5 stars
comments

Recluser Tab

   
I'm sorry for sending this tab twice, the first time I accidentally hit "Submit Tab Now" button.


------------------------------------------------------------------------------
			     Recluser - Band Name
------------------------------------------------------------------------------
Tabbed by:schleichi
Email: lemmyfredericksen@yahoo.de

Tuning:standard

Intro
e|---------------------------------------------------------------------------|
B|---------------------------------------------------------------------------|
G|---------------------------------------------------------------------------|
D|---9--4-5--4-5----9--4-5--4-5------9--4-5--4-5----9--4-5--4-5--------------|
A|---9--4-5--4-5----9--4-5--4-5------9--4-5--4-5----9--4-5--4-5--------------|
E|---7--2-3--2-3----7--2-3--2-3------7--2-3--2-3----7--2-3--2-3--------------|

e|---------------------------------------------------------------------------|
B|---------------------------------------------------------------------------|
G|---------------------------------------------------------------------------|
D|---9--4-5-4---9--4-5-4-----9--4-5-4-----9------7-/9------------------------|
A|---9--4-5-4---9--4-5-4-----9--4-5-4-----9------7-/9------------------------|
E|---7--2-3-2---7--2-3-2-----7--2-3-2-----7------5-/7------------------------|

[ Tab from: http://www.guitartabs.cc/tabs/d/dover/recluser_tab.html ]
verse (play whole thing twice)
                                    2x                                     1x
e|------------------------------------|---------------------------------------|
B|------------------------------------|---------------------------------------|
G|------------------------------------|---------------------------------------|
D|----------------------------9--4--5-|----------------------4-5-4-5-4--7-7-7-|
A|----------------------------9--4--5-|----------------------4-5-4-5-4--7-7-7-|
E|----------------------------7--2--3-|----------------------2-3-2-3-2--5-5-5-|
 |
 | bass                             2x                                     1x
G|------------------------------------|--------------------------------------|
D|------------------------------------|--------------------------------------|
A|------------------------------------|--------------------------------------|
E|-3--3-3---3--//--10-10-10---7--2--3-|-3--3-3--3-//-10--10--2-3-2-3-2--5-5-5|

Chorus
      D    F#   b
If i plan my revenge
F#     G                  D
My revenge, yeah! yeah! yeah!
             A
Be proud of me
            F#
Don't be ashamed
      D     F#   b
For today, it's ok
Fis   G                D
It's ok!, yeah! yeah! yeah!
               A
Can't sing no more
             Fis
Don't be ashamed

-------Repeat Intro----------|
               Verse---------|
                Chorus-------|


 BRIDGE  (with this cappuccino creamer sound)
                             2x             3x
e|-----------------------------|-------------|
B|-----------------------------|-------------|
G|-----------------------------|-------------|
D|-----------------------------|-------------| play powerchords
A|-----------------------------|-------------| when drums come in
E|--3-5-7--2-3-5---3-2-0--3-2--|--3-2-0-3-2--|

  G       h        A       E
It's just bad luck again   Have to wake up
  G     h          A
Every morning    again

------Repeat Intro-----
              Chorus----

                G                D
You gotta give'em what they deserve
                A                          h
They stole the needle and the filter and everything
               G                D
You gotta give'em What they deserve
                 A         Fis
off with their heads!


------repeat intro second part--------




| /  slide up
| \  slide down
| h  hammer-on
| p  pull-off
| ~  vibrato
| +  harmonic
| x  Mute note
=============================================================================
Comments