Dover - My Fault Chords & Tabs

 

My Fault Chords & Tabs

Dover Chords & Tabs

Version: 2 Type: Tab 0 ratings
1 star 2 stars 3 stars 4 stars 5 stars
comments

My Fault Tab

   
-------------------------------------------------------------------------------
			     SONG NAME - Band Name
-------------------------------------------------------------------------------
Tabbed by:schleichi (angelehnt an baumis tabs)
Email:lemmyfrederiksen

Tuning:standard 
intro
e|-------------------------|8x
B|-------------------------|
G|-------------------------|
D|----5-5-6-5-5-8-8-8------|
A|----5-5-6-5-5-8-8-8------|
E|----3-3-4-3-3-6-6-6------|

verse
e|-----------------------------------------------------------------------|x2
B|-----------------------------------------------------------------------|
G|--12-12-10-12-12-10-12-12-10-12----8---------------10------------------|
D|--12-12-10-12-12-10-12-12-10-12----8-(x4)-8--------10-(x4)--5----------|
A|--10-10-10-10-10-10-10-10-10-10----6------8-(x4)----8-------5-(4x)-----|
E|------------------------------------------6-----------------3----------|


chorus                                   always x4
e|---------------------------------------------------------------------------|
B|---------------------------------------------------------------------------|
G|---9-------5-------7-------------------9--5--7-------------8--7------------|
D|---9-(x4)--5-(x4)--7-(x4)--5-----------9--5--7------9---5--8--7------------|
A|---7-------3-------5-------5-(x4)------7--3--5------9---5--6--5------------|
E|---------------------------3------------------------7---3------------------|

[ Tab from: http://www.guitartabs.cc/tabs/d/dover/my_fault_tab_ver_2.html ]
solo part 1
e|---------------------------------------------------------------------------|
B|---------------------------------------------------------------------------|
G|-------------12--14p13p12-------------------12--14p13p12-------------------|
D|------12-15------------------12-------12-15-----------------12-------------|
A|--15----------------------15-------15--------------------15----------------|
E|---------------------------------------------------------------------------|
 

                           Half bend
e|---------------------------------------------------------------------------|
B|---------------------------------------------------------------------------|
G|----14p13p12---------------------------------------------------------------|
D|--------------12-13-12----/\-----------------------------------------------|
A|-------------------------13--\\-8-10-11-10----8-10-8-10-8-10-11-10---------|
E|---------------------------------------------------------------------------|

e|---------------------------------------------------------------------------|
B|---------------------------------------------------------------------------|
G|----------------------12~~~~~~//15~~-//18--19-19-19-19-19--19--18----------|
D|---------------------------------------------------------------------------|
A|----8-10-8-10-11-10--------------------------------------------------------|
E|---------------------------------------------------------------------------|

e|---------------------------------------------------------------------------|
B|---------------------------------------------------------------------------|
G|---------------------------------------------------------------------------|
D|--17-17-15-17-17-15-15-17-17-----------------------------------------------|
A|---------------------------------------------------------------------------|
E|---------------------------------------------------------------------------|


| /  slide up
| \  slide down
| h  hammer-on
| p  pull-off
| ~  vibrato
| +  harmonic
| x  Mute note
===============================================================================
Comments