Dover - My Fault Chords & Tabs

 

My Fault Chords & Tabs

Dover Chords & Tabs

Version: 1 Type: Tab 0 ratings
1 star 2 stars 3 stars 4 stars 5 stars
comments

My Fault Tab

Dover - My Fault
tabbed by Baumi

Intro:
|-----------------------|
|-----------------------|
|-----------------------|
|----5-5-6-5-5-8-8-8----|
|----5-5-6-5-5-8-8-8----|
|----3-3-4-3-3-6-6-6----|

Verse
|---------------------------------------------------------------|
|---------------------------------------------------------------|
|----12-12-10-12-12-10-12-12-10-12------3------5----------------|
|----12-12-10-12-12-10-12-12-10-12-(8x)-3-(8x)-5-(8x)-5-(8x)----|
|----10-10-10-10-10-10-10-10-10-10------1------3------5---------|
|-----------------------------------------------------3---------|

Chorus:
|-------------------------------------------------------------------|
|-------------------------------------------------------------------|
|----12-(8x)-5-(8x)-7-(8x)-12-(8x)-12-(8x)-5-(8x)-7-(8x)-11-(8x)----|
|----12-(8x)-5-(8x)-7-(8x)-12-(8x)-12-(8x)-5-(8x)-7-(8x)-11-(8x)----|
|----10------3------5------10------10------3------5------ 9---------|
|-------------------------------------------------------------------|

|-----------------------|
|-----------------------|
|----12-(16x)-7-(8x)----|
|----12-(16x)-7-(8x)----|
|----10-------5---------|
|-----------------------|
[ Tab from: http://www.guitartabs.cc/tabs/d/dover/my_fault_tab.html ]
Solo part I
|-------------------------------------------------------------|
|-------------------------------------------------------------|
|----------12-15-12h14p12----12-------12-15-12h14p12----12----|
|-----12-15---------------12----12-15----------------12-------|
|-------------------------------------------------------------|
|-------------------------------------------------------------|

Solo part II
|-------------------------------------------------------------------------|
|-------------------------------------------------------------------------|
|----14-1414--------------------------------------------------------------|
|------------12~----------------------------------------------------------|
|---------------12-1212/10\12~-10-12-10-12-101010~-10-12-10-12-101010~----|
|-------------------------------------------------------------------------|

Solo part III
|-------------------------------------------------------------------------|
|-------------------------------------------------------------------------|
|--12-1212-12-12~-12-1212-12-12~-15-1515-15-15~-17-1717-17-17~-19~-19-19--|
|-------------------------------------------------------------------------|
|-------------------------------------------------------------------------|
|-------------------------------------------------------------------------|

|----------------------------------------------|
|----------------------------------------------|
|-19~\-----------------------------------------|
|------17-17-15-17~1717-15-17-17-15-17~1717----|
|----------------------------------------------|
|----------------------------------------------|
Comments