Dover - My Fault Chords & Tabs

 

My Fault Chords & Tabs

Dover Chords & Tabs

Version: 1 Type: Bass Tab 0 ratings
1 star 2 stars 3 stars 4 stars 5 stars
comments

My Fault Bass Tab

   
-------------------------------------------------------------------------------
			     My Fault - Dover
-------------------------------------------------------------------------------

Tabbed By : schleichi
e-mail: lemmyfrederiksen@yahoo.de

Tuning:standard

alright, if you want to know what the bass plays during intro, verse and chorus just
watch "my fault-guitar tab ver.2" i think, what is more important is the solo backing,
because it's really difficult to hear what is exactly played. i dont think itīs 100%
correct, but itīs ok. i put in the guitar-tabs, too, so can have an idea which guitar-
lick belongs to which bass part.


solo part 1 (1:24)
e|---------------------------------------------------------------------------|
B|---------------------------------------------------------------------------|
G|-------------12--14p13p12-------------------12--14p13p12-------------------|
D|------12-15------------------12-------12-15-----------------12-------------|
A|--15----------------------15-------15--------------------15----------------|
E|---------------------------------------------------------------------------|
 |                                 |
 |  (just like the intro)          |
G|---------------------------------------------------------------------------|
D|---------------------------------------------------------------------------|
A|---------------------------------------------------------------------------|
E|--3--3--4---3---3----6----6--------3--3---4--3---3---6----6----------------|
 
[ Tab from: http://www.guitartabs.cc/tabs/d/dover/my_fault_btab.html ]
  (1:27)                         Half bend      (1:31)
e|---------------------------------------------------------------------------|
B|---------------------------------------------------------------------------|
G|----14p13p12---------------------------------------------------------------|
D|--------------12-13-12----/\-----------------------------------------------|
A|-------------------------13--\\-8-10-11-10----8-10-8-10-8-10-11-10---------|
E|---------------------------------------------------------------------------|
 |
 |
G|---------------------------------------------------------------------------|
D|---------------------------------------------------------------------------|
A|----1------1--1-1-3--------------------------------------------------------|
E|-------------------------1-----1---1-1-------1--3-1--3--4-3--1--3----------|

                        (1:34)
e|---------------------------------------------------------------------------|
B|---------------------------------------------------------------------------|
G|----------------------12~~~~~~~~~~~~~~//15~~-//18--19-19-19-19-19--19--18--|
D|---------------------------------------------------------------------------|
A|----8-10-8-10-11-10--------------------------------------------------------|
E|---------------------------------------------------------------------------|
 |
 |
G|---------------------------------------------------------------------------|
D|---------------------------------------------------------------------------|
A|-----------------------------------------------------------5--8---8---8----|
E|----1-3--1-3--4-3-----3-3-3-3-1-3-3//15----------\\6--6-6------------------|

  (1:42)
e|---------------------------------------------------------------------------|
B|---------------------------------------------------------------------------|
G|---------------------------------------------------------------------------|
D|--17-17-15-17-17-15-15-17-17-----------------------------------------------|
A|---------------------------------------------------------------------------|
E|---------------------------------------------------------------------------|
 |
 |
G|---------------------------------------------------------------------------|
D|---------------------------------------------------------------------------|
A|---------------------------------------------------------------------------|
E|---8-8--6--8--8--6--6-8---8------------------------------------------------|


| /  slide up
| \  slide down
| h  hammer-on
| p  pull-off
| ~  vibrato
| +  harmonic
| x  Mute note
===================================================================
Comments