Dove Tail Joint - Level On The Inside Chords & Tabs

 

Level On The Inside Chords & Tabs

Dove Tail Joint Chords & Tabs

Version: 2 Type: Bass Tab 0 ratings
1 star 2 stars 3 stars 4 stars 5 stars
comments

Level On The Inside Bass Tab

   
  BTAB: Level On The Inside
Artist: Dove Tail Joint
Author: Rattman (jratt0@hotmail.com)

**Padrino's Bass Tab Exclusive!**

Intro:
G-2-2-2-2-2/10-10-10-10-10/11-11-11-11-11-12-11-7-4-
D---------------------------------------------------
A---------------------------------------------------
E---------------------------------------------------

Verse 1:
"When I'm measuring out..."
G------------------------------
D------------------------------
A---------------8h9-9-9---9-9--
E-3h5-5-5-5-5-5----------------
[ Tab from: http://www.guitartabs.cc/tabs/d/dove_tail_joint/level_on_the_inside_btab_ver_2.html ]
Chorus:
"As your insides fall..."
G---------------------------------------------------------------------
D---------------------------------------------------------------------
A-0-0-0--0-0-0-0-0--------------------4-4-4-4-4-4-4-4-5---------------
E-------------------0-0-0-0-0-0-0-0-0-------------------5/10-10-10-10-

Verse 2:
"I think you can..."
G---------------------------------------
D---------------------------------------
A-0---0-0-0-7--7-7-7-9--9--9-9-10-9-5-2-
E---------------------------------------

Taken from Padrino's Bass Tab Archive: http://members.xoom.com/jszalma/
Comments