Doubting Robinson - In Echo Chords & Tabs

 

In Echo Chords & Tabs

Doubting Robinson Chords & Tabs

Version: 1 Type: Tab 0 ratings
1 star 2 stars 3 stars 4 stars 5 stars
comments

In Echo Tab

-------------------------------------------------------------------------------
DOUBTING ROBINSON-IN ECHO
TABBED BY: Doubting286@aol.com
-------------------------------------------------------------------------------

By:
INTRO/HALF OF VERSE 1
e|2--0--2--7-----------------------------------------------------------------|
B|3--0--3--8-----------------------------------------------------------------|
G|0--0--0--9-----------------------------------------------------------------|
D|4--2--4--9-X4--------------------------------------------------------------|
A|3--2--3--7-----------------------------------------------------------------|
E|---0-----0-----------------------------------------------------------------|

SECOND HALF OF BOTH VERSES
e|------------------0--------------------------------------------------------|
B|-----------0------0--------------------------------------------------------|
G|--0---0---0-0-----0--------------------------------------------------------|
D|-4-4-4-4-4---4-4--2----X2--------------------------------------------------|
A|3---3---3-----3---2--------------------------------------------------------|
E|------------------0--------------------------------------------------------|
[ Tab from: http://www.guitartabs.cc/tabs/d/doubting_robinson/in_echo_tab.html ]
FIRST CHORUS
e|3--2--2--2-----------------------------------------------------------------|
B|3--3--3--3-----------------------------------------------------------------|
G|0--0--0--X---X2------------------------------------------------------------|
D|0--X--4--2-----------------------------------------------------------------|
A|2--2--3--0-----------------------------------------------------------------|
E|3--0-----------------------------------------------------------------------|

FIRS HALF OF SECOND VERSE
e|----0-----0----------------------------------------------------------------|
B|----0-----0----------------------------------------------------------------|
G|----0-----0----------------------------------------------------------------|
D|4^~-2-4^~-2----------------------------------------------------------------|
A|3~--2-3~--2----------------------------------------------------------------|
E|----0-----0----------------------------------------------------------------|
(bend is slow)

SECOND CHORUS					 (HIT LAST A A LOT)
e|3--2--2--2|-3--2--2--2-0-2-3----|-3--2--2-2-------2----2-------------------|
B|3--3--3--3|-3--3--3--3-3-3-3----|-3--3--3-3--------3----3------------------|
G|0--0--0--x|-0--0--0--X-X-X-X----|-0--0--0-X--------------------------------|
D|0--x--4--2|-0--X--4--2-2-2-2-X2-|-0--X--4-2----2-2--2-2--------------------|
A|2--2--3--0|-2--2--3--0-0-0-0----|-2--2--3-0----0-0--0-0--------------------|
E|3--0------|-3--0----------------|-3--0-------------------------------------|

OUTRO
e|---------------------------------------------------------------------------|
B|------2-------2-------2-------2--------------------------------------------|
G|-3-3-3-3-3-3-3-3-3-3-3-3-3-3-3-3-------------------------------------------|
D|4-4-4---4-4-4---2-2-2---2-2-2----X3----------------------------------------|
A|---------------------------------------------------------------------------|
E|------------------------------------0--------------------------------------|

===============================================================================


Comments