Dos Minutos - Ya No Sos Igual Chords & Tabs

 

Ya No Sos Igual Chords & Tabs

Dos Minutos Chords & Tabs

Version: 1 Type: Tab 0 ratings
1 star 2 stars 3 stars 4 stars 5 stars
comments

Ya No Sos Igual Tab

 Bueno chamacos

esta es la tablatura de ya no sos igual. estoy 99% seguro de que esta correcta. haber si 
gusta


despues de que se escuche la bateria y luego empieze el bajo entra la guitarra uno haciendo

INTRO:

e----------------------------------------------------------------------|
B--1----1--8-------8---------------------------------------------------|
G----------------------2----2---10-------------------------------------|
D----------------------------------------------------------------------|
A----------------------------------------------------------------------|
E----------------------------------------------------------------------|

DESPUES SIGUE LA GUITARRA 2 HACIENDO ESTO (CADA PISADA SE TOCA CON LA PLULILLA/UŅA 16 
PERO SOLO ME CUPO PARA 8)
[ Tab from: http://www.guitartabs.cc/tabs/d/dos_minutos/ya_no_sos_igual_tab.html ]
e----------------------------------------------------------------------|
B----------------------------------------------------------------------|
G--5-5-5-5-5-5-5-5-----------------------------------------------------|
D--5-5-5-5-5-5-5-5-5-5-5-5-5-5-5-5-7-7-7-7-7-7-7-7-3-3-3-3-3-3-3-3-----|
A--3-3-3-3-3-3-3-3-5-5-5-5-5-5-5-5-7-7-7-7-7-7-7-7-3-3-3-3-3-3-3-3-----|
E------------------3-3-3-3-3-3-3-3-5-5-5-5-5-5-5-5-1-1-1-1-1-1-1-1-----|

pm-....................................................................

e----------------------------------------------------------------------|
B----------------------------------------------------------------------|
G--5-5-5-5-5-5-5-5-----------------------------------------------------|
D--5-5-5-5-5-5-5-5-5-5-5-5-5-5-5-5-7--------7--3------5-5-5-5-5--------|
A--3-3-3-3-3-3-3-3-5-5-5-5-5-5-5-5-7--------7--3------5-5-5-5-5--------|
E------------------3-3-3-3-3-3-3-3-5--------5--1------3-3-3-3-3--------|

pm-................................

VERSOS ES LO MISMO QUE ACA ARRIBA PERO SIN PALM MUTE (pm...)


pd:muchas gracias para el que revice la tablatura si tiene algun error o alguna duda 
a mi mail bugger41@hotmial.com o si se sabe la de disneylandia tambien de dos minutos 
porfa

GRAX

--lacavex picos--
Comments