Dos Minutos - Valentin Alsina Chords & Tabs

 

Valentin Alsina Chords & Tabs

Dos Minutos Chords & Tabs

Version: 1 Type: Bass Tab 0 ratings
1 star 2 stars 3 stars 4 stars 5 stars
comments

Valentin Alsina Bass Tab

------------------------------------------
valentin alsina / dos minutos                     
------------------------------------------

tabbed by carlos pino

   intro                                                         x4
G]---------------------------------------------------------------------------
D]---------------------------------------------------------------------------
A]------------------------------4-4-4-4-4--------------------------------
E]-5-5-5-5-5--2-2-2-2-2-----------------------------------------------
[ Tab from: http://www.guitartabs.cc/tabs/d/dos_minutos/valentin_alsina_btab.html ]
    verse                                                x4
G]---------------------------------------------------------------------------
D]---------------------------------------------------------------------------
A]------------------------------4-4-4-4-4--------------------------------
E]-5-5-5-5-5--2-2-2-2-2----------------------------------------------

   verse 2                                               x4     
G]---------------------------------------------------------------------------
D]---------------------------------------------------------------------------
A]--------------------4-4-4-4-4-4-4-------------------------------------
E]-1-1-1-1-1-1-1--------------------------------------------------------

   coro                                                   x4    
G]---------------------------------------------------------------------------
D]---------------------------------------------------------------------------
A]-------------------------------4-4-4-4-4--------------------------------
E]-5-5-5-5-5--2-2-2-2-2-----------------------------------------------
                                                        
verse 2  
coro
verse 2
coro

Comments