Dos Minutos - Vago Chords & Tabs

 

Vago Chords & Tabs

Dos Minutos Chords & Tabs

Version: 2 Type: Bass Tab 0 ratings
1 star 2 stars 3 stars 4 stars 5 stars
comments

Vago Bass Tab

------------------------------
vago  /  dos minutos
------------------------------

tabbed by carlos pino

    intro                                                        x6
G]---------------------------------------------------------------------------
D]---------------------------------------------------------------------------
A]-5-5--2-2----------------------------------------------------------------
E]--------------3-3--2-5--------------------------------------------------
[ Tab from: http://www.guitartabs.cc/tabs/d/dos_minutos/vago_btab_ver_2.html ]
    verse                                                 x8
G]---------------------------------------------------------------------------
D]---------------------------------------------------------------------------
A]-5-5----------------------------------------------------------------------
E]-------2-2--3-3--2-5---------------------------------------------------
  
   bridge                                                  x4
G]---------------------------------------------------------------------------
D]---------------------------------------------------------------------------
A]-5-5-5--2-2-2--------------------------------------------------------------
E]-------------------3-3-3--2--5------------------------------------------

verse
verse
Comments