Dos Minutos - Gatillo Facil Chords & Tabs

 

Gatillo Facil Chords & Tabs

Dos Minutos Chords & Tabs

Version: 1 Type: Bass Tab 0 ratings
1 star 2 stars 3 stars 4 stars 5 stars
comments

Gatillo Facil Bass Tab

---------------------------------------
gatillo facil  /  dos minutos
---------------------------------------

tabbed by carlos pino

   intro                                                        x4
G]---------------------------------------------------------------------------
D]---------------------------------------------------------------------------
A]---3-3-3---5-5-5-------------------------------------------------------
E]----------------------1-1-1---3-3-3------------------------------------
[ Tab from: http://www.guitartabs.cc/tabs/d/dos_minutos/gatillo_facil_btab.html ]
    verse                                                                       x4                      
G]---------------------------------------------------------------------------
D]---------------------------------------------------------------------------
A]---3-3-3--5-5-5--------------------------------------------------------
E]----------------------1-1-1---3-3-3------------------------------------
   
   verse 2                                                      x = hartas veces
G]---------------------------------------------------------------------------
D]---------------------------------------------------------------------------
A]--3#----------------------------------------------------------------------
E]--------3#------5#-------1#---------------------------------------------

 verse

    coro                                                      x4        
G]---------------------------------------------------------------------------
D]---------------------------------------------------------------------------
A]-3-3-3---5-5-5---------------------------------------------------------
E]--------------------1-1-1---3-3-3--------------------------------------

verse 2
verse
verse 2
coro





Comments