Dos Minutos - Demasiado Tarde Chords & Tabs

 

Demasiado Tarde Chords & Tabs

Dos Minutos Chords & Tabs

Version: 2 Type: Bass Tab 0 ratings
1 star 2 stars 3 stars 4 stars 5 stars
comments

Demasiado Tarde Bass Tab

----------------------------------------------------------------
demasiado tarde (la marcha) /  dos minutos                     
----------------------------------------------------------------

tabbed by carlos pino
    
    intro                                                x2
G]---------------------------------------------------------------------------
D]---------------------------------------------------------------------------
A]--6-6-6-6------------6-6----------------------------6-6--------------
E]------------3-3-3--1--------1-1-1-1---3-3-3--1--------------------

G]---------------------------------------------------------------------------
D]---------------------------------------------------------------------------
A]-6-6-6-6----------------------------------------6-6-------------------
E]-----------------------------3-3-3------1-------------------------------

G]---------------------------------------------------------------------------
D]---------------------------------------------------------------------------
A]--------------------------------------------6-6---------------------------
E]-1-1-1-1--------------3-3-3---1--------------------------------------

G]---------------------------------------------------------------------------
D]---------------------------------------------------------------------------
A]-6-6-6-6-----------------------------6-6------------------------------
E]----------------3-3-3------1--------------------------------------------
[ Tab from: http://www.guitartabs.cc/tabs/d/dos_minutos/demasiado_tarde_btab_ver_2.html ]
G]---------------------------------------------------------------------------
D]---------------------------------------------------------------------------
A]----------------------------------------------6-6-------------------------
E]--1-1-1-1--------------3-3-3----1------------------------------------

G]---------------------------------------------------------------------------
D]---------------------------------------------------------------------------
A]-6-6-6-6-------------------------------------------6-6----------------
E]-------------------------------3-3-3---------1--------------------------

G]---------------------------------------------------------------------------
D]---------------------------------------------------------------------------
A]--------------------------------------------------6-6---------------------
E]-1-1-1-1------------------------3-3-3---1-----------------------------


G]---------------------------------------------------------------------------
D]---------------------------------------------------------------------------
A]-6-6-6-6-------------------------------6-6-----------------------------
E]------------------------3-3-3----1---------------------------------------

G]---------------------------------------------------------------------------
D]---------------------------------------------------------------------------
A]---------------------------------------------6-6--------------------------
E]-1-1-1-1--------------3-3-3------1------------------------------------

                                                                          x2
G]-------------------------------------------------------------------------------------------
D]-------------------------------------------------------------------------------------------
A]-6-6-6-6 --------------------------6-6----------------------------------------6-6----
E]---------------------------3-3-3-1-----------1-1-1-1--------------3-3-3-1---------

verse
coro

Comments