Dos Minutos - Copetin Al Paso Chords & Tabs

 

Copetin Al Paso Chords & Tabs

Dos Minutos Chords & Tabs

Version: 1 Type: Bass Tab 0 ratings
1 star 2 stars 3 stars 4 stars 5 stars
comments

Copetin Al Paso Bass Tab

---------------------------------------------
copetin al paso  /  dos minutos                     
---------------------------------------------

tabbed by carlos pino

   intro                                                                          x2
G]---------------------------------------------------------------------------
D]---------------------------------------------------------------------------
A]-----------------9-9-9-9-9--7--4---5--7-----------------------------
E]-5-5-5-5-5-5-----------------------------------------------------------
[ Tab from: http://www.guitartabs.cc/tabs/d/dos_minutos/copetin_al_paso_btab.html ]
    verse                                                                 x4    
G]---------------------------------------------------------------------------
D]---------------------------------------------------------------------------
A]-----------------9-9-9-9-9--7--4--5--7------------------------------
E]-5-5-5-5-5-5-----------------------------------------------------------

   bridge                                                       # = hartas veces
G]---------------------------------------------------------------------------
D]---------------------------------------------------------------------------
A]-4#--5#---7#---4#---5#---7#---------------------------------------
E]-------------------------------------5-------------------------------------

   verse

    coro                                                           x4
G]---------------------------------------------------------------------------
D]---------------------------------------------------------------------------
A]-----------------9-9-9-9-9-7-4-5-7-----------------------------------
E]-5-5-5-5-5-5-----------------------------------------------------------





Comments