Dos Minutos - Como Caramelo De Limon Chords & Tabs

 

Como Caramelo De Limon Chords & Tabs

Dos Minutos Chords & Tabs

Version: 1 Type: Bass Tab 0 ratings
1 star 2 stars 3 stars 4 stars 5 stars
comments

Como Caramelo De Limon Bass Tab

----------------------------------------------------------
como caramelo de limon /  dos minutos
----------------------------------------------------------

tabbed by carlos pino

    intro                                                                             x4
G]---------------------------------------------------------------------------
D]---------------------------------------------------------------------------
A]---------------------------------------------4-4-4-4-4-4-4-4-4-4-4-4...
E]-2-2-2-2-2-2-2-2--4-4-4-4-4-4-4-4----------------------------------

    verse
G]-------------------------------------------------------------------------------------------------------
D]-------------------------------------------------------------------------------------------------------
A]-4-4-4-4-4-4-4-4---------------------------------------------------------------------------------
E]-------------------------6-6-6-6-6-6-6-6----2-2-2-2-2-2-2-2-----------4-4-4-4-4-4-4-4

G]-------------------------------------------------------------------------------------------------
D]-------------------------------------------------------------------------------------------------
A]----------------------------------------------------------------------------------------------------
E]--4-4-4-4-4-4-4-4----6-6-6-6-6-6-6-6---2-2-2-2-2-2-2-2--------4-4-4-4-4-4-4-4
[ Tab from: http://www.guitartabs.cc/tabs/d/dos_minutos/como_caramelo_de_limon_btab.html ]
G]------------------------------------------------------------------------------------------------
D]------------------------------------------------------------------------------------------------
A]----------------------------4-4-4-4-4-4-4-4-------------------------4-4-4-4-4-4-4-4-
E]---2-2-2-2-2-2-2-2--------------------------4-4-4-4-4-4-4-4-------------------------
        
G]----------------------------------------------------------------------------------------------
D]----------------------------------------------------------------------------------------------
A]---------------------------4-4-4-4-4-4-4-4------------------------4-4-4-4-4-4-4-4-
E]-2-2-2-2-2-2-2-2---------------------------4-4-4-4-4-4-4-4------------------------

G]---------------------------------------------------------------------------  x4
D]---------------------------------------------------------------------------
A]----------------------------------------------4-4-4-4-4-4-4-4--------
E]--2-2-2-2-2-2-2-2-4-4-4-4-4-4-4-4-------------------------------

verse
coro
                                                                                                                                     x2
G]--------------------------------------------------------------------------------------------------------------------
D]--------------------------------------------------------------------------------------------------------------------
A]--------------------------4-4-4-4-4-4-4-4------------------------4-4-4-4-4-4-4-4-------------------------
E]-2-2-2-2-2-2-2-2----------------------------2-2-2-2-2-2-2-2----------------------------------------------


Comments