Doro Pesch - Always Live To Win Chords & Tabs

 

Always Live To Win Chords & Tabs

Doro Pesch Chords & Tabs

Version: 1 Type: Tab 0 ratings
1 star 2 stars 3 stars 4 stars 5 stars
comments

Always Live To Win Tab

Band: Doro
Song: Always live to win
Album: Fight
Transcriber: Robert Johnstone


Intro
E----------------------------------------------------------|
B----------------------------------------------------------|
G----------------------------------------------------------|
D--4--4--4--4----7--7--7--7----2--2--2--2------------------|
A--4--4--4--4----7--7--7--7----2--2--2--2------------------|
E--2--2--2--2----5--5--5--5----0--0--0--0------------------|

Verse
E----------------------------------------------------------|
B----------------------------------------------------------|
G----------------------------------------------------------|
D--4--4--4--4----7--7--7--7----2--2--2--2------------------|
A--4--4--4--4----7--7--7--7----2--2--2--2------------------|
E--2--2--2--2----5--5--5--5----0--0--0--0------------------|
       p.m                   p.m              p.m

Chorus
E----------------------------------------------------------|
B----------------------------------------------------------|
G----------------------------------------------------------|
D--4--4--4--4----7--7--7--7----2--2--2--2------------------|
A--4--4--4--4----7--7--7--7----2--2--2--2------------------|
E--2--2--2--2----5--5--5--5----0--0--0--0------------------|
[ Tab from: http://www.guitartabs.cc/tabs/d/doro_pesch/always_live_to_win_tab.html ]
Riff 1
E---9r---------12r------9s4-ri------------|
B-----------------------------------------|
G-----------------------------------------|
D-----------------------------------------|
A-----------------------------------------|
E-----------------------------------------|

Riff 2
E----9--9--9--9--9--9--9--9--9--9--9--99--9-----------------|
B-----------------------------------------------------------|
G-----------------------------------------------------------|
D-----------------------------------------------------------|
A-----------------------------------------------------------|
E-----------------------------------------------------------|
Riff 3
E---------------------------------------|
B---------------------------------------|
G---------------------------------------|
D--4-----------7---------------2--------|
A--4--rest----7-------rest----2---------|
E--2-----------5----------------0-------|

Riff 3 comes into play when the crowd goes crazy

Keys:
p.m. -palm mute
R-reverb
Ri- let it ring
Rest-rest

Song structure:
Intro
Riff1
Verse
Chorus
Verse
Chorus
Riff 2
Riff 3
Chorus

That's my version of always live to win, corrections, additions, comments, hate mail or 
 just tab it in, doro is cool but she should have stayed with warlock!always live to win!
Comments