Dope - You Spin Me Round Chords & Tabs

 

You Spin Me Round Chords & Tabs

Dope Chords & Tabs

Version: 1 Type: Tab 0 ratings
1 star 2 stars 3 stars 4 stars 5 stars
comments

You Spin Me Round Tab

   
You Spin Me Round
D O P E
Tabbed By Aaron Bridgeman (rokken@sicness.net)

http://bogans.arecool.net

Sick maate. Not the crap 70s or 80s song, but a new heavy metal
version which is quite rokken.

As with all tabs, listen to the song for best timing.

Might be tuned down somewhere (maybe A or B), possibly drop D'd as well.

KEY
pm . = palm mute (duh)
~    = sustain and vibrato a bit
/    = slide up
h    = hammer on
<    = use whammy to lower pitch and back

and no, it's NOT 22 and 44.

INTRO
e|-----------------|
B|-----------------|
G|-----------------|
D|-----------------|
A|-4-4-4-4-7-7-2-2-|
E|-2-2-2-2-5-5-0-0-|
[ Tab from: http://www.guitartabs.cc/tabs/d/dope/you_spin_me_round_tab.html ]
RIFF 1
e|-----------------------------------------------------------------|
B|-----------------------------------------------------------------|
G|-----------------------------------------------------------------|
D|-----------------------------------------------------------------|
A|-4-4-4-4-4-4-4-4-7-7-7-7-2-2-2-2-4-4-4-4-4-4-4-4-9-9-9-9-2-2-2-2-|
E|-2-2-2-2-2-2-2-2-5-5-5-5-0-0-0-0-2-2-2-2-2-2-2-2-7-7-7-7-0-0-0-0-|

RIFF 2
e|---------------------------------|
B|---------------------------------|
G|---------------------------------|
D|-6-6-----------------------------|
A|-4-4-9-9-7-7-6-6-4-4-4-4-4-4-4-4-|
E|-----7-7-5-5-4-4-2-2-2-2-2-2-2-2-|

LEAD RIFF 2 (intro)
e|---------------------|
B|-14~-12~-10~-9~-7
Comments