Dope - You Spin Me Right Round Chords & Tabs

 

You Spin Me Right Round Chords & Tabs

Dope Chords & Tabs

Version: 1 Type: Tab 0 ratings
1 star 2 stars 3 stars 4 stars 5 stars
comments

You Spin Me Right Round Tab

Artist: Dope
Song: You Spin Me Right Round
Tuning: Down 1.5 steps then top string down another full step (I think)

Tabbed by Andrew McNeil


Intro
|-----------------|
|-----------------|
|-----------------|
|-2-2-2-2-5-5-----|
|-0-0-0-0-3-3-5-5-|
|-------------5-5-|


Main/Chorus Riff       1st Time          2nd Time
|-----------------|-----------------|-----------------|
|-----------------|-----------------|-----------------|
|-----------------|-----------------|-----------------|
|-2-2-2-2-2-2-2-2-|-5-5-5-5---------|-7-7-7-7---------|
|-0-0-0-0-0-0-0-0-|-3-3-3-3-5-5-5-5-|-5-5-5-5-5-5-5-5-|
|-----------------|---------5-5-5-5-|---------5-5-5-5-|


Lead 1
|-12--10--------------|
|---------13--12--10--|
|---------------------|
|---------------------|
|---------------------|
|---------------------|


Riff 1
|---------------------------|
|---------------------------|
|---------------------------|
|-7--5--3--2--0----2-2-2222-|
|-7--5--3--2--0----2-2-2222-|
|-7--5--3--2--0----2-2-2222-|
                   |---pm--|
[ Tab from: http://www.guitartabs.cc/tabs/d/dope/you_spin_me_right_round_tab.html ]
Verse          X2                 X2
|------------------|------------------|
|------------------|------------------|
|------------------|------------------|
|------------------|-5-7-7-77-77-7777-|
|-5-7-7-77-77-7777-|-3-5-5-55-55-5555-|
|-5-7-7-77-77-7777-|------------------|
      |-----pm----|      |-----pm----|


Riff2 
|---------------------------------------------------------------|
|---------------------------------------------------------------|
|---------------------------------------------------------------|
|-2-2-2-2-2-2-2-2-5-5-5-5-5-5-5-5-7-7-7-7-7-7-7-7-9-9-9-9-9-9-9-|
|-0-0-0-0-0-0-0-0-3-3-3-3-3-3-3-3-5-5-5-5-5-5-5-7-7-7-7-7-7-7-7-|
|---------------------------------------------------------------|


Lead2
|---------------|
|--------9--11--|
|-9--11---------|
|---------------|
|---------------|
|---------------|


Extra
|-------|
|-------|
|-------|
|-2-2-2-|
|-0-0-0-|
|-------|


Extra2      X2               X2
|-----------------|-----------------|
|-----------------|-----------------|
|-----------------|-----------------|
|-----------------|-7-7-7-7-7-7-7-7-|
|-7-7-7-7-7-7-7-7-|-5-5-5-5-5-5-5-5-|
|-7-7-7-7-7-7-7-7-|-----------------|
  |-------------pm-----------------|


Order:

Intro                 X1
Main/Chorus Riff      x1
Riff1 + Lead1         X1
Verse                 X2
Riff2 + Lead2         X1
Verse                 X2
Riff2 + Lead2         X1
Main/Chorus Riff      x2
Extra                 x1
Verse                 X2
Riff2 + Lead2         X1
Main/Chorus Riff      x2
Extra2                x1
Riff2 + Lead2         X1
Main/Chorus Riff      x2
Extra2                x1
Riff1 + Lead1         X1
Comments