Dope - With Or Without You Chords & Tabs

 

With Or Without You Chords & Tabs

Dope Chords & Tabs

Version: 1 Type: Bass Tab 0 ratings
1 star 2 stars 3 stars 4 stars 5 stars
comments

With Or Without You Bass Tab

   
Song: With or Without You
Artist: Dope
Tuning: Db Ab Db Gb


Pre-verse:
Gb-|-----------------------------------------------------------x3
Db-|-----------------------------------------------------------x3
Ab-|-------------------5-5-5-5-7-7-7-9-------------------------x3
Db-|---4-4-4-4-7-7-7-7-----------------------------------------x3

Gb-|-------------------------------------------------------------
Db-|-------------------------------------------------------------
Ab-|-------------------5-5-5-5-7---------------------------------
Db-|---4-4-4-4-7-7-7-7-------------------------------------------

Verse:
Gb-|-------------------------------------------------------------
Db-|-------------------------------------------------------------
Ab-|-------------------5-5-5-5-7-7-7-9---------------------------
Db-|---4-4-4-4-7-7-7-7-------------------------------------------
[ Tab from: http://www.guitartabs.cc/tabs/d/dope/with_or_without_you_btab.html ]
Gb-|-------------------------------------------------------------
Db-|-------------------------------------------------------------
Ab-|-------------------5-5-5-5-7-5-7-9---------------------------
Db-|---4-4-4-4-7-7-7-7-------------------------------------------

Pre-course
Gb-|-------------------------------------------------------------
Db-|-------------------------------------------------------------
Ab-|-------------------------------------------------------------
Db-|---4-4-4-4-7-7-7-7-0-0-0-0-2-2-2-2---------------------------

Course:
Gb-|-------------------------------------------------------------
Db-|-------------------------------------------------------------
Ab-|-----------4-------------2-------------0-------------2-------
Db-|---4-4-4-4-------2-2-2-2-------0-0-0-0-------2-2-2-2---------

Interlude:
Gb-|-------------------------------------------------------------
Db-|-------------------------------------------------------------
Ab-|--------------5----7-----------------------------------------
Db-|---4----7----------------------------------------------------

Comments