Dope - Take Your Best Shot Chords & Tabs

 

Take Your Best Shot Chords & Tabs

Dope Chords & Tabs

Version: 3 Type: Tab 0 ratings
1 star 2 stars 3 stars 4 stars 5 stars
comments

Take Your Best Shot Tab

Song: Take Your Best Shot
Band: Dope
Album: Life
Tabbed by: Craig Shepherd
Email: craigdshepherd@hotmail.com
www.taoy.tk
Tuning: normal

check dope's website... www.dopearmy.com ... they rock!!!


*** Intro ***

e|-----------------------------------------------------|
B|-----------------------------------------------------|
G|-----------------------------------------------------|
D|------------------------------------------6----------|
A|-----51111-51111-56-----51111-51111-56---55-5---7----|
E|-----51111-51111-56-----51111-51111-56--------76-6---|
[ Tab from: http://www.guitartabs.cc/tabs/d/dope/take_your_best_shot_tab_ver_3.html ]
                                          come on and take  
e|-----------------------------------------------------|
B|-----------------------------------------------------|
G|-----------------------------------------------------|
D|------------------------------------------6----------|
A|-----51111-51111-56-----51111-51111-56---55-5---7----|
E|-----51111-51111-56-----51111-51111-56--------76-6---|

*** Chorus ***
   shot.............  |  Blow them away!    |
e|--------------------|---------------------|
B|--------------------|---------------------|
G|--------------------|---------------------|
D|-----------------5--|------------------5--|
A|-22-42-5---22-42-5--|--22-42-5---22-42-5--|
E|-22-42-5---22-42----|--22-42-5---22-42----|

                      |  Blow them away!    |
e|--------------------|---------------------|
B|--------------------|---------------------|
G|--------------------|---------------------|
D|-----------------5--|------------------5--|
A|-22-42-5---22-42-5--|--22-42-5---22-42-5--|
E|-22-42-5---22-42----|--22-42-5---22-42----|

the verse of the song is pretty simple using similar finger positions. 
============================================================================
Comments