Dope - Take Your Best Shot Chords & Tabs

 

Take Your Best Shot Chords & Tabs

Dope Chords & Tabs

Version: 1 Type: Tab 0 ratings
1 star 2 stars 3 stars 4 stars 5 stars
comments

Take Your Best Shot Tab

   
   BITCHIN' TABS

          URL: www.angelfire.com/goth/btab/
	EMAIL: btabmaster@hotmail.com

        THIS IS AN EXCLUSIVE TAB TO "BITCHIN' TABS"

 ----------------------------------------------------------------------------------------------

	     SONG: Take Your Best Shot
	     BAND: Dope
	    ALBUM: Life
   TRANSCRIBED BY: Chris Frazier (btabmaster@hotmail.com)
	     DATE: 10-05-01

 ----------------------------------------------------------------------------------------------

	TUNING: Drop D (D A D G B E)

     Riff 1:
    E|---------------------------|
    B|---------------------------|
    G|---------------------------|
    D|-3-0-0-0-0--3-0-0-0-0--5-6-|
    A|-3-0-0-0-0--3-0-0-0-0--5-6-|
    D|-3-0-0-0-0--3-0-0-0-0--5-6-|
     PM-          -          - -

     Riff 2:
    E|-----------------|
    B|-----------------|
    G|-----------------|
    D|-----6-----------|
    A|-3-5---5---------|
    D|---------0-0-3-5-|

     Riff 3:
    E|-------------------------------|
    B|-------------------------------|
    G|-------------------------------|
    D|-0--0-3-0-0--3--0--0-3-0-0--/6-|
    A|-0--0-3-0-0--3--0--0-3-0-0--/6-|
    D|-0--0-3-0-0--3--0--0-3-0-0--/6-|
[ Tab from: http://www.guitartabs.cc/tabs/d/dope/take_your_best_shot_tab.html ]
     Riff 4:
    E|----------------------------------------------------------|
    B|----------------------------------------------------------|
    G|----------------------------------------------------------|
    D|-0-------------3-------------3-------------3--0--6--5--3--|
    A|-0-------------3-------------3-------------3--0--6--5--3--|
    D|-0-0-0-0-0-0-0-3-0-0-0-0-0-0-3-0-0-0-0-0-0-3--0--6--5--3--|
     PM  - - - - - -   - - - - - -   - - - - - -

     Riff 5:
    E|-------------|
    B|-------------|
    G|-------------|
    D|-3-0-x-x-x-x-|
    A|-3-0-x-x-x-x-|
    D|-3-0-x-x-x-x-|

     Riff 6: (w/ some weird effect)
    E|---------|
    B|---------|
    G|---------|
    D|---6---6-|
    A|-5---5---|
    D|---------|

     Riff 7:
    E|----------------------------------------------|
    B|----------------------------------------------|
    G|----------------------------------------------|
    D|-0-0--0-1-0-0-0-0--0-1-0-0-0-0--0-1-0-0-0-0---|
    A|-0-0--0-1-0-0-0-0--0-1-0-0-0-0--0-1-0-0-0-0---|
    D|-0-0--0-1-0-0-0-0--0-1-0-0-0-0--0-1-0-0-0-0---|
     PM- -  -       - -  -       - -  -       - -

     Riff 8:
    E|---|
    B|---|
    G|---|
    D|-0-| Let ring...
    A|-0-|
    D|-0-|
Comments