Dope - Stop Chords & Tabs

 

Stop Chords & Tabs

Dope Chords & Tabs

Version: 1 Type: Tab 0 ratings
1 star 2 stars 3 stars 4 stars 5 stars
comments

Stop Tab

Author/Artist: Dope 
Title: Stop 
Album: Life 
 

Tuning: 
AEADF#B 
Or Standard 7 String Drop-A 
There r little bits in here that i didnt bother adding in, u can figure them ou 

t ureself 

-----------|--------------------|--------------------------------------------- 
-----------|--------------------|--------------------------------------------- 
-----------|--------------------|--------------------------------------------- 
-----------|-3p0-0000-3p0-5-00--|--------------------------------------------- 
-----------|-3p0-0000-3p0-3-00--|--------------------------------------------- 
-000000-3^-|-3p0-0000-3p0---00--|--------------------------------------------- 
Part 1 Chorus 
[ Tab from: http://www.guitartabs.cc/tabs/d/dope/stop_tab.html ]
-------------------------------|---------------------------------------------- 
-------------------------------|---------------------------------------------- 
-------------------------------|---------------------------------------------- 
-3p0-000-000-3p0-3p0-00-00000-3|---------------------------------------------- 
-3p0-000-000-3p0-3p0-00-00000-3|---------------------------------------------- 
-3p0-000-000-3p0-3p0-00-00000-3|---------------------------------------------- 
Part 3 

----------------------------------------|------------------------------------- 
----------------------------------------|------------------------------------- 
-77777---------9-----77777--------9\\\\\|------------------------------------- 
-xxxxx---------x-----xxxxx--------x-----|-77777---------99---9-7777----------- 
-55555-8888/10\7/8\7/55555-888/10\7\\\\\|-55555-8888-10-77-8-7-5555-888-10-7-- 
----------------------------------------|------------------------------------- 
Pre-Chorus 1 Pre-Chorus Part 2
Comments