Dope - Slipping Away Chords & Tabs

 

Slipping Away Chords & Tabs

Dope Chords & Tabs

Version: 3 Type: Tab 0 ratings
1 star 2 stars 3 stars 4 stars 5 stars
comments

Slipping Away Tab

   
Song: Slipping Away
Artist: Dope
Tuning: Low to High: (C, G, C, F, A, D)
Tabbed by: David Michalek

Intro (Clean Guitar)

D  | -----------------------------------------------------------|
A  | -----------------------------------------------------------|
F  | -----------------------------------------------------------|
C  | -----------------------------------------------------------| x2
G  | --7-7-7-7-7---10-10-10-10-10---12-12-12-12-12---8-8-8-8-8--|
C  | --7-7-7-7-7---10-10-10-10-10---12-12-12-12-12---8-8-8-8-8--|

Chorus (Distortion)
[ Tab from: http://www.guitartabs.cc/tabs/d/dope/slipping_away_tab_ver_3.html ]
D  | ------------------------------------------------|
A  | ------------------------------------------------|
F  | ------------------------------------------------|
C  | --7-7---11-11---5-5---3-3-3 / 5-----------------| x2
G  | --7-7---11-11---5-5---3-3-3 / 5-----------------|
C  | --7-7---11-11---5-5---3-3-3 / 5-----------------|

Verse

D  | ------------------------------------------------|
A  | ------------------------------------------------|
F  | ------------------------------------------------|
C  | ------------------------------------------------| x2
G  | ------------------------------------------------|
C  | ---7-----------10-----------12-----------8------|

Bridge

D  | ----------------------------------------|
A  | ----------------------------------------|
F  | ----------------------------------------|
C  | --7-7---3-3---11-11---5-5---------------|  x2
G  | --7-7---3-3---11-11---5-5---------------|
C  | --7-7---3-3---11-11---5-5---------------|


Outro (Same as intro only 1 time)
Comments