Dope - Sick Chords & Tabs

 

Sick Chords & Tabs

Dope Chords & Tabs

Version: 1 Type: Chords 0 ratings
1 star 2 stars 3 stars 4 stars 5 stars
comments

Sick Chords

   
Sick by Dope
Guitarist: Tripp Eisen
Album: Felons And Revolutionaries
Dif.: 6
Tabbed by Twiggy5

NOTE: Tune down to Drop D 1/2 (Db Ab Db Gb Bb Eb)

Intro/Chorus
Gb|-7-XXXX-7-XXXX-7-XXXX-7-XXXX-7-XX-7-XX-----|
Db|-7-XXXX-7-XXXX-7-XXXX-7-XXXX-7-XX-7-XX--3--|
Ab|-5-XXXX-5-XXXX-5-XXXX-5-XXXX-5-XX-5-XX--3--|
Eb|----------------------------------------3--|

Verse ("With each time you process....")
Db|-12--0-6-0-5-0-5-0-3-5--|
Ab|-12--0-6-0-5-0-5-0-3-5--|
Db|-12--0-6-0-5-0-5-0-3-5--|

Fill 1 - Big Long ass pik scrape along low E string
[ Tab from: http://www.guitartabs.cc/tabs/d/dope/sick_crd.html ]
Bridge ("And your dead fukker...")
Db|-0-12-0-6-0-5-0-5-0-3-3-3-3--|
Ab|-0-12-0-6-0-5-0-5-0-3-3-3-3--|
Db|-0-12-0-6-0-5-0-5-0-3-3-3-3--|
                      pm------|
 
Fill 2
Db|-0-12-0-6-0-5-0-5-0-3-3---3333--3333--|
Ab|-0-12-0-6-0-5-0-5-0-3-3---3333--3333--|
Db|-0-12-0-6-0-5-0-5-0-3-3---3333--3333--|

Song Structure: -
Drums
Drum + Bass
Intro
Bass Shiatsu
Verse ("With each time you process....")
Drum Fill
Chorus ("Bang, bang, bang in your...")
Drum Fill
Fill 1
Bass Shiatsu
Verse ("With each time you congress me....")
Chorus
Bridge
Fill 2
Chorus

Aww nice sick song by a sick band. Dope are very underrated band and I think they 
should get more recognition. If you have any comments, corrections or suggestions 
email me at ToXic345x@yahoo.ca
Comments