Dope - Rebel Yell Chords & Tabs

 

Rebel Yell Chords & Tabs

Dope Chords & Tabs

Version: 2 Type: Tab 0 ratings
1 star 2 stars 3 stars 4 stars 5 stars
comments

Rebel Yell Tab

This is a Billy Idol-Cover Version by Dope. I am HIM-Fan, they also covered Rebel Yell.
But if I compare Billy Idol, HIM and Dope Rebel Yell, it is not hard to tell which one
is the best one, it's the Dope - Rebel Yell.
Here is the tab:

INTRO:

E----------------------------------------------------------------------------|
B----------------------------------------------------------------------------|
G----------------------------------------------------------------------------|
D--------6--8--------6--8--------6--8----------------------------------------|
A-----8-----------8-----------8-----------8----------------------------------|
E--6-----------6-----------6-----------6-------------------------------------|

E------------------------------------------------------------------6~--------|
B----------------------------------------------------------------------------|
G-------------------------------------------------------6--------------------|
D--8--8--8--8-----6--6--4--6-----8--8--8--8-----6--6----6--6--8--------------|
A--8--8--8--8-----6--6--4--6-----6--6--6--6-----6--6----4--6--8--------------|
E--6--6--6--6-----4--4--2--4-----6--6--6--6-----4--4-------4--6--------------|

VERSE (Just come in right after: "...came pumping on my floor"):

E----------------------------------------------------------------------------|
B----------------------------------------------------------------------------|
G----------------------------------------------------------------------------|
D--------------8----8--8--8--8--8--8--8--8--8--8--6--6--6--6--6--6--4--4--4--|
A--4--4--------8----8--8--8--8--8--8--8--8- 8--8--6--6--6--6--6--6--4--4--4--|
E--------4--4--6----6--6--6--6--6--6--6--6--6--6--4--4--4--4--4--4--2--2--2--|

PRE-CHORUS (During: "Because"):

E----------------------------------------------------------------------------|
B----------------------------------------------------------------------------|
G--6-------------------------------------------------------------------------|
D--6--6--8-------------------------------------------------------------------|
A--4--6--8-------------------------------------------------------------------|
E-----4--6-------------------------------------------------------------------|

CHORUS (play this twice):

E----------------------------------------------------------------------------|
B----------------------------------------------------------------------------|
G-----------------------------------------------------------6----------------|
D--8--8--8--8--8--8--8--8--8--6--8--6--6--6--6--6--4--4--4--6---6--8---------|
A--8--8--8--8--8--8--8--8--8--6--8--6--6--6--6--6--4--4--4--4---6--8---------|
E--6--6--6--6--6--6--6--6--6--4--6--4--4--4--4--4--2--2--2------4--6---------|

VERSE (Just come in right after: "...she sees me to bed"):

E----------------------------------------------------------------------------|
B----------------------------------------------------------------------------|
G----------------------------------------------------------------------------|
D--------------8----8--8--8--8--8--8--8--8--8--8--6--6--6--6--6--6--4--4--4--|
A--4--4--------8----8--8--8--8--8--8--8--8--8--6--6--6--6--6--6--4--4--4--4--|
E--------4--4--6----6--6--6--6--6--6--6--6--6--6--4--4--4--4--4--4--2--2--2--|

PRE-CHORUS (During: "Because"):
[ Tab from: http://www.guitartabs.cc/tabs/d/dope/rebel_yell_tab_ver_2.html ]
E----------------------------------------------------------------------------|
B----------------------------------------------------------------------------|
G--6-------------------------------------------------------------------------|
D--6--6--8-------------------------------------------------------------------|
A--4--6--8-------------------------------------------------------------------|
E-----4--6-------------------------------------------------------------------|

CHORUS (play this twice):

E----------------------------------------------------------------------------|
B----------------------------------------------------------------------------|
G----------------------------------------------------------------------------|
D--8--8--8--8--8--8--8--8--8--6--8--6--6--6--6--6--4--4--4--8--8-------------|
A--8--8--8--8--8--8--8--8--8--6--8--6--6--6--6--6--4--4--4--8--8-------------|
E--6--6--6--6--6--6--6--6--6--4--6--4--4--4--4--4--2--2--2--6--6-------------|

AFTER CHORUS ("Well, he lives in his own heaven..."; play this twice; I can hear two guitars in this part):

1. GUITAR (play this 4 times, at forth time just replace the 2-4-4 and 4-6-6--| riffs with PRE-CHORUS-riff):
E-----------------------------------------------------------------------------|
B-----------------------------------------------------------------------------|
G-----------------------------------------------------------------------------|
D--8--8--8--8-----6--6--4--6--------------------------------------------------|
A--8--8--8--8-----6--6--4--6--------------------------------------------------|
E--6--6--6--6-----4--4--2--4--------------------------------------------------|

2. GUITAR (play this 30 times):
E----------------------------------------------------------------------------|
B--4--6----------------------------------------------------------------------|
G----------------------------------------------------------------------------|
D----------------------------------------------------------------------------|
A----------------------------------------------------------------------------|
E----------------------------------------------------------------------------|

AFTER THIS PART (..."as it don't fuck up his hair", play the INTRO):

E----------------------------------------------------------------------------|
B----------------------------------------------------------------------------|
G----------------------------------------------------------------------------|
D--------6--8--------6--8--------6--8----------------------------------------|
A-----8-----------8-----------8-----------8----------------------------------|
E--6-----------6-----------6-----------6-------------------------------------|

SOLO (Here play two guitars in the solo):

1. GUITAR
E-----------------------------------------------------------------------------|
B-----------------------------------------------------------------------------|
G--------------10-----------------10-----------------10-----------------10----|
D--8--6--8--6------8--8--6--8--6------8--8--6--8--6------8--8--6--8--6------8-|
A-----------------------------------------------------------------------------|
E-----------------------------------------------------------------------------|

SORRY, will fill in the rest later. I have got to stop now, it is urgent!
E-Mail: sel_him@gmx.de
Comments