Dope - Now Or Never Chords & Tabs

 

Now Or Never Chords & Tabs

Dope Chords & Tabs

Version: 6 Type: Tab 0 ratings
1 star 2 stars 3 stars 4 stars 5 stars
comments

Now Or Never Tab

   
Dope - Now Or Never
Track 2 on Life
Guitar - Acey Slade \\m// and Virus

Drop D tuning (D,A,D,G,B,E)

Intro
Guitar 1
E|----------------------------------------------------------|
B|----------------------------------------------------------|
G|----------------------------------------------------------|
D|----------------------------------------------------------|
A|----------------------------------------------------------|
D|--4h6--4h6--4h6--4h6--------------------------------------| (x2)

Guitar 2 (comes in during the second time, after 1st hammeron)
E|----------------------------------------------------------|
B|----------------------------------------------------------|
G|----------------------------------------------------------|
D|---4-6--4-6--4-6------------------------------------------|
A|---x-x--x-x--x-x------------------------------------------|
D|---4/6--4/6--4/6------------------------------------------|(x1)
Both guitars slide up to 12 on low D

E|----------------------------------------------------------|
B|----------------------------------------------------------|
G|----------------------------------------------------------|
D|--4-6--4-6--4-6--4-6-12-----------------------------------|
A|--4-6--4-6--4-6--4-6-12-----------------------------------|
D|--4-6--4-6--4-6--4-6/12-----------------------------------| (x4)

Verse

    A.   
E|----------------------------------------------------------|
B|----------------------------------------------------------|
G|----------------------------------------------------------|
D|--6/0---0/6--6-6-6-6-5-5-5-5-4-4-4-3-3-3------------------|
A|--6/0-----------------------------------------------------|
D|--6/0-----------------------------------------------------| 
PM             . . . . . . . . slowly un-palmute once you hit the 5's 
    B.
E|----------------------------------------------------------|
B|----------------------------------------------------------|
G|----------------------------------------------------------|
D|--6/0-----------------------------------------------------|
A|--6/0---0/6--6-6-6-6-5-5-5-5-4-4-4-3-3-3------------------|
D|--6/0-----------------------------------------------------| 
PM             . . . . . . . . slowly un-palmute once you hit the 5's

Play part a. of verse again

E|----------------------------------------------------------|
B|----------------------------------------------------------|
G|----------------------------------------------------------|
D|--6/0---0/6-8-8-8-8-8-7-7-7-7-----------------------------|
A|--6/0-------------------------8-8-8-8-8-7-7-7-7/0---------|
D|--6/0-----------------------------------------------------|
PM            . . . . . . . . . . . . . . . . . 

Pre-Chorus

Guitar 1
E|------------------------------------------------------------------|
B|------------------------------------------------------------------|
G|------------------------------------------------------------------|
D|--6-6-6-6-6-6-6-6-9-9-9-9-9-9-9-9-4-4-4-4-4-4-4-4-1-1-1-1-4-4-4-4-|
A|--6-6-6-6-6-6-6-6-9-9-9-9-9-9-9-9-4-4-4-4-4-4-4-4-1-1-1-1-4-4-4-4-|
D|--6-6-6-6-6-6-6-6-9-9-9-9-9-9-9-9-4-4-4-4-4-4-4-4-1-1-1-1-4-4-4-4-| (x2)

Guitar 2 (This might be a little off)
E|------------------------------------------------------------------|
B|------------------------------------------------------------------|
G|--8-8-8-8-8-8-8-8-11-11-11-11-11-11-11-11-13-13-13----------------|
D|--x-x-x-x-x-x-x-x-x--x--x--x--x--x--x--x--x--x--x-----------------|
A|--6-6-6-6-6-6-6-6-9--9--9--9--9--9--9--9--11-11-11----------------|
D|------------------------------------------------------------------|

E|----------------------------------------------------------|
B|----------------------------------------------------------|
G|-6-6-6-6-6-6-6-6-4-4-4-4-6-6-6-6-6------------------------|
D|-x-x-x-x-x-x-x-x-x-x-x-x-x-x-x-x-x------------------------|
A|-4-4-4-4-4-4-4-4-1-1-1-1-4-4-4-4-4------------------------|
D|----------------------------------------------------------|

Guitar 1
E|----------------------------------------------------------|
B|----------------------------------------------------------|
G|----------------------------------------------------------|
D|----------------------------------------------------------|
A|----------------------------------------------------------|
D|--4h6--4h6--4h6--4h6--------------------------------------|

Both guitars slide
D|--12/0---------------|
A|--12/0---------------|
D|--12/0---------------|

Chorus
E|----------------------------------------------------------|
B|----------------------------------------------------------|
G|----------------------------------------------------------|
D|--4-6--4-6--4-6--4-6/12--2-4-2-4-2-4-2-4/12---------------|
A|--4-6--4-6--4-6--4-6/12--2-4-2-4-2-4-2-4/12---------------|
D|--4-6--4-6--4-6--4-6/12--2-4-2-4-2-4-2-4/12---------------|

E|----------------------------------------------------------|
B|----------------------------------------------------------|
G|----------------------------------------------------------|
D|-0h2-0h2-0h2-0h2/12---------------------------------------|
A|-0h2-0h2-0h2-0h2/12---------------------------------------|
D|-0h2-0h2-0h2-0h2/12---------------------------------------|

E|-----------------------------------------------|
B|-----------------------------------------------|
G|---6-6-6-6-6-7-7-7-7-7-------------------------|
D|---x-x-x-x-x-x-x-x-x-x-------------------------|
A|---4-4-4-4-4-5-5-5-5-5-------------------------|
D|-----------------------------------------------| (x2)

Verse
[ Tab from: http://www.guitartabs.cc/tabs/d/dope/now_or_never_tab_ver_6.html ]
    A.   
E|----------------------------------------------------------|
B|----------------------------------------------------------|
G|----------------------------------------------------------|
D|--6/0---0/6--6-6-6-6-5-5-5-5-4-4-4-3-3-3------------------|
A|--6/0-----------------------------------------------------|
D|--6/0-----------------------------------------------------| 
PM             . . . . . . . . . . . . . .  
    B.
E|----------------------------------------------------------|
B|----------------------------------------------------------|
G|----------------------------------------------------------|
D|--6/0-----------------------------------------------------|
A|--6/0---0/6--6-6-6-6-5-5-5-5-4-4-4-3-3-3------------------|
D|--6/0-----------------------------------------------------| 
PM             . . . . . . . . . . . . . .

Play part a. of verse again

E|----------------------------------------------------------|
B|----------------------------------------------------------|
G|----------------------------------------------------------|
D|--6/0---0/6-8-8-8-8-8-7-7-7-7-----------------------------|
A|--6/0-------------------------8-8-8-8-8-7-7-7-7/0---------|
D|--6/0-----------------------------------------------------|
PM            . . . . . . . . . . . . . . . . . 

Pre-Chorus

Guitar 1
E|------------------------------------------------------------------|
B|------------------------------------------------------------------|
G|------------------------------------------------------------------|
D|--6-6-6-6-6-6-6-6-9-9-9-9-9-9-9-9-4-4-4-4-4-4-4-4-1-1-1-1-4-4-4-4-|
A|--6-6-6-6-6-6-6-6-9-9-9-9-9-9-9-9-4-4-4-4-4-4-4-4-1-1-1-1-4-4-4-4-|
D|--6-6-6-6-6-6-6-6-9-9-9-9-9-9-9-9-4-4-4-4-4-4-4-4-1-1-1-1-4-4-4-4-| (x2)

Guitar 2 (This might be a little off)
E|------------------------------------------------------------------|
B|------------------------------------------------------------------|
G|--8-8-8-8-8-8-8-8-11-11-11-11-11-11-11-11-6-6-6-6-6-6-6-6-4-4-4-4-|
D|--x-x-x-x-x-x-x-x-x--x--x--x--x--x--x--x--x-x-x-x-x-x-x-x-x-x-x-x-|
A|--6-6-6-6-6-6-6-6-9--9--9--9--9--9--9--9--4-4-4-4-4-4-4-4-1-1-1-1-|
D|------------------------------------------------------------------|

E|----------------------------------------------------------|
B|----------------------------------------------------------|
G|-6-6-6-6-6------------------------------------------------|
D|-x-x-x-x-x------------------------------------------------|
A|-4-4-4-4-4------------------------------------------------|
D|----------------------------------------------------------| (x2)

Both guitars
E|----------------|
B|----------------|
G|----------------|
D|-12/0-----------|
A|-12/0-----------|
D|-12/0-----------| 

Chorus
E|----------------------------------------------------------|
B|----------------------------------------------------------|
G|----------------------------------------------------------|
D|--4-6--4-6--4-6--4-6/12--2-4-2-4-2-4-2-4/12---------------|
A|--4-6--4-6--4-6--4-6/12--2-4-2-4-2-4-2-4/12---------------|
D|--4-6--4-6--4-6--4-6/12--2-4-2-4-2-4-2-4/12---------------|

E|----------------------------------------------------------|
B|----------------------------------------------------------|
G|----------------------------------------------------------|
D|-0h2-0h2-0h2-0h2/12---------------------------------------|
A|-0h2-0h2-0h2-0h2/12---------------------------------------|
D|-0h2-0h2-0h2-0h2/12---------------------------------------|

E|-----------------------------------------------|
B|-----------------------------------------------|
G|---6-6-6-6-6-7-7-7-7-7-------------------------|
D|---x-x-x-x-x-x-x-x-x-x-------------------------|
A|---4-4-4-4-4-5-5-5-5-5-------------------------|
D|-----------------------------------------------| (x2)

Verse 2

E|----------------------------------------------------------|
B|----------------------------------------------------------|
G|----------------------------------------------------------|
D|--4-6--4-6--4-6--4-6/12-----------------------------------|
A|--4-6--4-6--4-6--4-6/12-----------------------------------|
D|--4-6--4-6--4-6--4-6/12-----------------------------------| (x8)

PM ALL of this
E|----------------------------------------------------------|
B|----------------------------------------------------------|
G|----------------------------------------------------------|
D|----------------------------------------------------------|
A|------------------------2-2--2-2--2--2-2--2-2-2-----------|
D|-6-6--6-6--6--6-6--6-6-6----------------------------------|

E|--------------------------------------------------------|
B|--------------------------------------------------------|
G|--------------------------------------------------------|
D|--------------------------------------------------------|
A|-4-4--4-4--1-1--1-1--1--1-1-----------------------------|
D|----------------------------4-4-4-4-6-6-6-6-------------| (x2)

Pre Chorus
Guitar 1
E|----------------------------------------------------------|
B|----------------------------------------------------------|
G|----------------------------------------------------------|
D|----------------------------------------------------------|
A|----------------------------------------------------------|
D|--4h6--4h6--4h6--4h6--------------------------------------|

Both guitars slide
D|--12/0---------------|
A|--12/0---------------|
D|--12/0---------------|

Chorus
E|----------------------------------------------------------|
B|----------------------------------------------------------|
G|----------------------------------------------------------|
D|--4-6--4-6--4-6--4-6/12--2-4-2-4-2-4-2-4/12---------------|
A|--4-6--4-6--4-6--4-6/12--2-4-2-4-2-4-2-4/12---------------|
D|--4-6--4-6--4-6--4-6/12--2-4-2-4-2-4-2-4/12---------------|

E|----------------------------------------------------------|
B|----------------------------------------------------------|
G|----------------------------------------------------------|
D|-0h2-0h2-0h2-0h2/12---------------------------------------|
A|-0h2-0h2-0h2-0h2/12---------------------------------------|
D|-0h2-0h2-0h2-0h2/12---------------------------------------|

E|-----------------------------------------------|
B|-----------------------------------------------|
G|---6-6-6-6-6-7-7-7-7-7-------------------------|
D|---x-x-x-x-x-x-x-x-x-x-------------------------|
A|---4-4-4-4-4-5-5-5-5-5-------------------------|
D|-----------------------------------------------| (x4)

Outro
E|----------------------------------------------------------|
B|----------------------------------------------------------|
G|----------------------------------------------------------|
D|--4-6--4-6--4-6--4-6-12-----------------------------------|
A|--4-6--4-6--4-6--4-6-12-----------------------------------|
D|--4-6--4-6--4-6--4-6/12-----------------------------------|(x4)

Have fun and rock on! If I left anything out, I'll come back and edit it as soon
as I realize it. E-mail me with comments, suggestions, or corrections.

XSongomonx@aol.com
Comments