Dope - Now Or Never Chords & Tabs

 

Now Or Never Chords & Tabs

Dope Chords & Tabs

Version: 3 Type: Tab 0 ratings
1 star 2 stars 3 stars 4 stars 5 stars
comments

Now Or Never Tab

   
tabbed by teel
now or never by DOPE
drop c tuning.c,g,c,f,a,d
this is nearly 100 percent correct, i even talked with virus about how he plays it...he actually plays it in drop d flat tuning   but i adjusted it to drop c...it makes it easier....if you do not believe me  emaill me at tuchmister@webtv.net,,,,i got pics with  edsel  and everyone else

opening riff #1
[ Tab from: http://www.guitartabs.cc/tabs/d/dope/now_or_never_tab_ver_3.html ]
---------------------------------------------------
---------------------------------------------------
---------------------------------------------------
---------------------------------------------------
-6-8-6-8-6-8-6-8xx6-8-6-8-6-8-6-8-slide up strings
-6-8-6-8-6-8-6-8xx6-8-6-8-6-8-6-8-slide up strings
next riff #2
----------------------
----------------------
----------------------
----------------------
-6-8-6-8-6-8-6-8-2-/9-
-6-8-6-8-6-8-6-8-2-/9-
next riff #3  first vers comes in here
------------------------------------
------------------------------------
------------------------------------
-----8-8--11-11-11-------------------
-8-8----8---------11-11-11-13-13-13-
-8-8--------------------------------
continued^
------------------------------------
------------------------------------
------------------------------------
-----8-8-6--------------------------
-8-8--------8-8-8-6-6-6-4-4-4-3-3-3--
-8-8---------------------------------

next riff #4  before chours and used throughot song
------------------------------------------------
------------------------------------------------
------------------------------------------------
------------------------------------------------
-6-8-6-8-6-8-6-8-6-8-9-11-9-11-9-11-9-11-9-11---
-6-8-6-8-6-8-6-8-6-8-9-11-9-11-9-11-9-11-9-11---
continued^
----------------------
------------6-9-------
------------5-8-------
------------3-6-------
-6666666666-3-6-------
-6666666666-3-6-------
do riff #1 quckly then slide into next  chous riff
chours riff #5
-----------------------------------------
-----------------------------------------
-----------------------------------------
-----------------------------------------
-6-8-6-8-6-8-6-8-6-8-4-4-4-4-4-4-4-4-2-4-
-6-8-6-8-6-8-6-8-6-8-4-4-4-4-4-4-4-4-2-4-
continued
-----------------------------
---------------------9-10----
---------------------8-9-----
---------------------6-7-----
-1-1-1-1-1-1-1-1-1-1-6-7-----
-1-1-1-1-1-1-1-1-1-1-6-7-----
thats it   the order is at the bottom  some parts of the song may not need distorion...like in the slow part  you use riff #4but with only light distortion\
order
riff 1
riff 1>thenslide
riff 2
riff 2
riff 2
riff 2
riff 3
riff 3
riff 4
riff 4
riff 1 then slide into chors
riff 5 chors riff
....u can n figure the rest














Comments