Dope - Now Or Never Chords & Tabs

 

Now Or Never Chords & Tabs

Dope Chords & Tabs

Version: 1 Type: Chords 0 ratings
1 star 2 stars 3 stars 4 stars 5 stars
comments

Now Or Never Chords

   
tune down to C or C#, I think it's C, anyway NOT a dropped tune...
written as standard tuning for 6str.
the main riffs alterate between open string and chording


intro goes something like this

   B            D A
---------------------------------------------------------------------|
---------------------------------------------------------------------|
---------------------------------------------------------------------|
---4---4---4---4-7-7-------------------------------------------------|
--02--02--02--02-5-7-------------------------------------------------|
-------------------5-------------------------------------------------|


the verse is a bit more tricky.....i don't have it all, but this is close enough to get 
idea

    whatcha go and do that for?        i'm telling you so tell
[ Tab from: http://www.guitartabs.cc/tabs/d/dope/now_or_never_crd.html ]
---------------------------------------------------------------|
---------------------------------------------------------------|
---------------------------------------------------------------|
-9\-------------------------------------999999999977777777777--|
-9\-----------------------------------7------------------------|
-7\-------------------------------7-9--------------------------|


 me     (me)                           what's it gonna be??
-------------------------------------------------------------|
-------------------------------------------------------------|
-------------------------------------------------------------|
-9\----------------------------------------------------------|
-9\------------------------------------777555444-------------|
-7\--------------------------------7-9-----------555---------|

  i don't know and i'm not sure...


here's the chords....listen to the song for the rhythm....ALSO alternating with open 
(same as in intro)

           you  say  good  bye   like every- thing's  al-
     B          D          A          F#     A


    -right  you say good   bye   like every thing's al-
     B          D          A          F#     A


    -right!


 (REPEAT 2X)
 if we   go   on           it's  now  or   never
    B                            G


 if we  go    on             - - - - - - - - - - -
    E                            A         A#
Comments