Dope - Everything Sucks Chords & Tabs

 

Everything Sucks Chords & Tabs

Dope Chords & Tabs

Version: 1 Type: Tab 0 ratings
1 star 2 stars 3 stars 4 stars 5 stars
comments

Everything Sucks Tab

Artist: Dope
Song: Everything Sucks
Album: Felons and Revolutionaries
Submitted by: coldkorn126954

Dropped D tuning (DADGBE)
Intro \ bridge 
x-mute  
e------------------------
B------------------------
G--------------------------
D----xxx-2--xxx-3--xxx-6--
A----xxx-2--xxx-3--xxx-6--
D----xxx-2--xxx-3--xxx-6--                                                     

Verse
The DJ is doing some thing that comes out like this
--10\9----10\9--
-------------------
---7\6-----7\6---
-------------------
-------------------
-------------------

The guitar plays this for the verse

-------------------------------                                        
-------------------------------                                         
------------------------------- 
xxxx-3-0-xxxxxxx----xxxxxx-3-0-                                        
xxxx-3-0-xxxxxxx----xxxxxx-3-0-                                        
xxxx-3-0-xxxxxxx----xxxxxx-3-0-                                        

play this later in the verse
-----------------------------
------------------------------
-------------------------------
xxxx-7-3-xxxxxxx----xxxxxx-7-3-
xxxx-7-3-xxxxxxx----xxxxxx-7-3-
xxxx-7-3-xxxxxxx----xxxxxx-7-3-
[ Tab from: http://www.guitartabs.cc/tabs/d/dope/everything_sucks_tab.html ]
Chorus                                                              
-----------------                                                          
-----------------                                
-3---------------                               
-3---4---6--2----                           
-1---4---6--2----                         
-----4---6--2---                      

Before 2nd verse

----------------------------------------------------------------------
-----------------------------------------------------------------------
-----------------------------------------------------------------------
--11-10--11-10--11-10--11-10------------11-10--11-10--11-10--11-10-----
-----------------------------12--------------------------------------12-
------------------------------------------------------------------------

--------------------------------------------------
--------------------------------------------------
--------------------------------------------------
-----6-5--6-5--6-5-6-5---------------------------
---------------------------7-----5-4-2-1---------
---------------------------------------------7-6-

Last chorus 

-6----9----3---5---                          
--------------------
-3----6----0---2---
--------------------
--------------------
--------------------
Comments