Dope - Debonaire Chords & Tabs

 

Debonaire Chords & Tabs

Dope Chords & Tabs

Version: 1 Type: Tab 0 ratings
1 star 2 stars 3 stars 4 stars 5 stars
comments

Debonaire Tab

   
Debonaire by Dope
Guitarist: Tripp Eisen & Edsel Dope
Album: Felons And Revolutionaries
Dif.: 6
Tabbed by Twiggy5

NOTE: Tune down to Drop D and 1/2 (Db Ab Db Gb Bb Eb)

Intro/Verse Part 1
Db|-2-------0-2--|
Ab|-2-------0-2--|
Db|-2(16x)--0-2--|
   PM

Intro 2/Verse Part 2
Db|-0-|-0-6-3-0--0-0-3-5-0-3-6-0--|
Ab|-0-|-0-6-3-0--0-0-3-5-0-3-6-0--|
Db|-0-|-0-6-3-0--0-0-3-5-0-3-6-0--|
    ^ only on first time
[ Tab from: http://www.guitartabs.cc/tabs/d/dope/debonaire_tab.html ]
Chorus (“I don’t care nothing...”)
Db|---3--------------2---|-0-|-0-6-3-0--0-0-3-5-0-3-6-0--|-%-|
Ab|---3--------------2---|-0-|-0-6-3-0--0-0-3-5-0-3-6-0--|-%-|
Db|---3--------------2---|-0-|-0-6-3-0--0-0-3-5-0-3-6-0--|-%-|

Fill (Gtr. 2)
e|-------------20^--19^---17^---|
b|--13^-------------------------|
      ^ slowly bend all full steps

Song Structre: -
Drums
Intro
Intro 2
Verse Part 1
Verse Part 2
Chorus
Verse Part 1
Verse Part 2
Chorus
Intro Part 2 (Gtr. 1)/Fill (Gtr. 2)
Drums
Chorus

I couldn’t figue out the end solo that’s in behind the last chorus cause it’s kinda a hard to hear but it doesn’t really matter, well yeah it does oh well... If you have any comments, corrections or suggestions email me at ToXic345x@yahoo.com
Comments