Dopamine - Destroy Something Beautiful Chords & Tabs

 

Destroy Something Beautiful Chords & Tabs

Dopamine Chords & Tabs

Version: 1 Type: Tab 0 ratings
1 star 2 stars 3 stars 4 stars 5 stars
comments

Destroy Something Beautiful Tab

   
Dopamine are an emo band from Caerphilly in Wales.

ARTIST: Dopamine
TITLE:  Destroy Something Beautiful
TABBER:	Luke Charman (emoluke@gmail.com)
ALBUM:  Auditioning My Escape Plan
TUNING: Dropped D (D A D G B E)

Here's the tab for Destroy Something Beautiful, I like this song a lot and
it's all pretty easy to play.

============================================================================

---------------------------------------------
These are the parts for Guitar 1, Neil Starr:
---------------------------------------------

Main Riff (Ending 1):

e|-----------------------------------------------------------------|
B|-----------------------------------------------------------------|
G|-----------------------------------------------------------------|
D|-----12-12p11-----12-12-12p11--------12-12p11-----12-12-12p11----|
A|-9-9----------9-9-------------12-0-0----------0-0-------------12-|
D|-9-9----------9-9----------------0-0----------0-0----------------|
                . .                             . .

e|-------------------------------------------------------------|
B|-------------------------------------------------------------|
G|-------------------------------------------------------------|
D|-----12-12p11-----12-12-12p11----0--0-0--0-0-0-5--5-5-7--7-7-|
A|-9-9----------9-9-------------12-0--0-0--0-0-0-5--5-5-7--7-7-|
D|-9-9----------9-9----------------0--0-0--0-0-0-5--5-5-7--7-7-|
                . .

Verse:

e|------------------------------------|
B|------------------------------------|
G|------------------------------------|
D|-9999999999999999-44444444-55555555-|
A|-9999999999999999-44444444-55555555-|
D|-9999999999999999-44444444-55555555-|
   ................ ........ ........


Main Riff (Ending 2):

e|-----------------------------------------------------------------|
B|-----------------------------------------------------------------|
G|-----------------------------------------------------------------|
D|-----12-12p11-----12-12-12p11--------12-12p11-----12-12-12p11----|
A|-9-9----------9-9-------------12-0-0----------0-0-------------12-|
D|-9-9----------9-9----------------0-0----------0-0----------------|
                . .                             . .

e|-----------------------------------------------------------|
B|-----------------------------------------------------------|
G|-----------------------------------------------------------|
D|-----12-12p11-----12-12-12p11--------12-12p11-----44444444-|
A|-9-9----------9-9-------------12-0-0----------0-0-44444444-|
D|-9-9----------9-9----------------0-0----------0-0-44444444-|
                . .                             . . ....

Chorus:

e|----------------------------------------------------------------------|
B|----------------------------------------------------------------------|
G|----------------------------------------------------------------------|
D|-9-9-999-9-99-9-990-0-000-0-00-0-009-9-999-9-99-9-990-0-000-0-00-0-00-|
A|-9-9-999-9-99-9-990-0-000-0-00-0-009-9-999-9-99-9-990-0-000-0-00-0-00-|
D|-9-9-999-9-99-9-990-0-000-0-00-0-009-9-999-9-99-9-990-0-000-0-00-0-00-|

e|-----------------------------------|
B|-----------------------------------|
G|-----------------------------------| (Play the above part once,
D|-9-9-9990-00-5-557-77-7775-55-0-00-|  then this part twice).
A|-9-9-9990-00-5-557-77-7775-55-0-00-|
D|-9-9-9990-00-5-557-77-7775-55-0-00-|


-----------------------------------------------
These are the parts for Guitar 2, Iain Mahanty:
-----------------------------------------------

Main Riff (Ending 1):

e|---------------------------------------------------------------|
B|---------------------------------------------------------------|
G|---------------------------------------------------------------|
D|---------------------------------------------------------------|
A|-9-9----------9-9----------------0-0---------0-0---------------|
D|-9-9----------9-9----------------0-0---------0-0---------------|
                . .                            . .
[ Tab from: http://www.guitartabs.cc/tabs/d/dopamine/destroy_something_beautiful_tab.html ]
e|-----------------------------------------------------------|
B|-----------------------------------------------------------|
G|-----11-11p9-----11-11-11p9--------------------------------|
D|----------------------------12-0--0-0--0-0-0-5--5-5-7--7-7-|
A|-9-9---------9-9---------------0--0-0--0-0-0-5--5-5-7--7-7-|
D|-9-9---------9-9---------------0--0-0--0-0-0-5--5-5-7--7-7-|
               . .

Verse:

e|------------------------------------|
B|------------------------------------|
G|-11-11---11-12--9-9--9-11--7-7--7-6-|
D|--x--x----x--x--x-x--x--x--x-x--x-x-|
A|--9--9----9-10--7-7--7--9--5-5--5-4-|
D|------------------------------------|

e|--------------------------------------------|
B|--------------------------------------------|
G|-11-11---11-12--9-9--9-11--7-7--7-6--6--7-7-|
D|--x--x----x--x--x-x--x--x--x-x--x-x--x--x-x-|
A|--9--9----9-10--7-7--7--9--5-5--5-4--4--5-5-|
D|--------------------------------------------|

e|-----------------------------------------|
B|-----------------------------------------|
G|-7-9---11--11-11-11-11-12--9--9-9-9-9-12-|
D|-x-x----x---x--x--x--x--x--x--x-x-x-x--x-|
A|-5-7----9---9--9--9--9-10--7--7--7--7-10-|
D|-----------------------------------------|

e|--------------------------------------------|
B|--------------------------------------------|
G|-11-11---11-12--9-9--9-11--7--7-7-7-7-6-6-6-|
D|--x--x----x--x--x-x--x--x--x--x-x-x-x-x-x-x-|
A|--9--9----9-10--7-7--7--9--5--5-5-5-5-4-4-4-|
D|--------------------------------------------|


Main Riff (Ending 2):

e|---------------------------------------------------------------|
B|---------------------------------------------------------------|
G|---------------------------------------------------------------|
D|---------------------------------------------------------------|
A|-9-9----------9-9----------------0-0---------0-0---------------|
D|-9-9----------9-9----------------0-0---------0-0---------------|
                . .                            . .

e|----------------------------------------------------------------|
B|----------------------------------------------------------------|
G|-----11-11p9-----11-11-11p9--------11-11p9-----1111111111111111-|
D|----------------------------12------------------x-x-x-x-x-x-x-x-|
A|-9-9---------9-9---------------0-0---------0-0--9-9-9-9-9-9-9-9-|
D|-9-9---------9-9---------------0-0---------0-0------------------|
               . .

Chorus:

e|-------------------|----------------|
B|-------------------|----------------| (Play the first part x3,
G|-------------------|----------------|  then the second part x1,
D|-12-11----14-12-11-|-14b16-14-12-11-|  then the first x3 again,
A|-------12----------|----------------|  then the second x1 again).
D|-------------------|----------------|

e|-------------------|----------------------|
B|-------------------|----------------------| (Same order as the above
G|-------------------|----------------------|  part, x3, x1, x3, x1).
D|-11-12-11----14-12-|-11-12-11-------------|
A|----------12-------|----------12-14-12-11-|
D|-------------------|----------------------|


Bridge:

e|---------------------|-------------|
B|---------------------|-------------| (Play each of these parts twice).
G|-4--4-4--6--6-6-7--7-|----77777777-|
D|-x--x-x--x--x-x-x--x-|-0--xxxxxxxx-|
A|-2--2-2--4--4-4-5--5-|-0--55555555-|
D|---------------------|-0-----------|

e|------------------------------------|
B|------------------------------------| (Play this riff eight times).
G|----9-11-------12-11-9-9h11p9-------|
D|-12------12-12----------------12-11-|
A|------------------------------------|
D|------------------------------------|

e|----------------------------9-------|
B|-10-------10-------12---------------| (Play this riff four times).
G|----9-9-9----9-9-9----9-9-9---9-9-9-|
D|------------------------------------|
A|------------------------------------|
D|------------------------------------|


------------------------------
This is the order of the song:
------------------------------

Neil:

Main Riff (Ending 1)	x1
Verse			x4
Main Riff (Ending 2)	x1
Chorus			x1
Verse			x4
Main Riff (Ending 2)	x1
Chorus			x2, then the last part loads more times.
Main Riff (No Ending)	x1

Iain:

Main Riff (Ending 1)	x1
Verse			x1
Main Riff (Ending 2)	x1
Chorus			x1
Verse			x1
Main Riff (Ending 2)	x1
Chorus			x1
Bridge			x1
Main Riff (No Ending)	x1

---

Comments? Questions? Suggestions? emoluke@gmail.com
Comments