Doors - Youre Lost Little Girl Chords & Tabs

 

Youre Lost Little Girl Chords & Tabs

Doors Chords & Tabs

Version: 2 Type: Tab 0 ratings
1 star 2 stars 3 stars 4 stars 5 stars
comments

Youre Lost Little Girl Tab

The Doors-You're Lost Little Girl
---------------------------------
 

e|-----2-0--------0-----2-0----------0----|
B|---0------1-0h1-----0------1-0-0h1------|
G|---0------0---------0------0------------|
D|---2------2---------2------2------------|
A|---2------3---------2------3------------|
E|-0----------------0---------------------|


e|-----2-0--0------0------3-----3------1------5-----|
H|---0--------1------1------3-----3------1------5---|
G|---0----------0------0------4-----4------2------6-|
D|---2------2------2------5-----5------3------7-----|    
A|---2----------------------------------------------|
E|-0------------------------------------------------|

e|-2-2-0-2--3--3----2-0-0-2--3--3---2--0-2--3--3--------2h3p2p0---------------|
H|-----------3--3-------------3--3-----------3--3-----3---------2h3p2p0---5-3-|
G|------------3--3-------------3--3-----------3--3--2-------------------2-----|
D|----------------------------------------------------------------------------|
A|----------------------------------------------------------------------------|
E|----------------------------------------------------------------------------|

e|--3-----3------2------2-----1-----1-----5-----5-----|
H|----3-----3------3------3-----1-----1-----5-----5---|
G|------4-----4------4------4-----2-----2-----6-----6-|
D|--5-----5------4------4-----3-----3-----7-----7-----|
A|----------------------------------------------------|
E|----------------------------------------------------|

e|-2-0-2--3--3--------2h3p2p0---------------|
H|---------3--3-----3---------2h3p2p0---5-3-|
G|----------3--3--2-------------------2-----|
D|------------------------------------------|
A|------------------------------------------|
E|------------------------------------------|

 
e|-----2-0--------0-----2-0----------0----|
B|---0------1-0h1-----0------1-0-0h1------|
G|---0------0---------0------0------------|
D|---2------2---------2------2------------|
A|---2------3---------2------3------------|
E|-0----------------0---------------------|

[ Tab from: http://www.guitartabs.cc/tabs/d/doors/youre_lost_little_girl_tab_ver_2.html ]
e|--3-----3------1------5-----|
H|----3-----3------1------5---|
G|------4-----4------2------6-|
D|--5-----5------3------7-----|    
A|----------------------------|
E|----------------------------|

Solo:

e|-/10--7-----10/12-------/15---12---10p7-10-7--10-9-8-7----------10/12----|
H|--------8---------10-----------------------------------8--------------10-|
G|----------9----------------------------------------------9---------------|
D|-----------------------------------------------------------10-7----------|
A|-------------------------------------------------------------------------|
E|-------------------------------------------------------------------------|

e|--/15-12h15-12-10h12-10-7h10-7--/13-/17--|
H|-----------------------------------------|
G|-----------------------------------------|
D|-----------------------------------------|
A|-----------------------------------------|
E|-----------------------------------------|


e|-2-0-2--3--3----2-0-2--3--3---2-0-2--3--3--------2h3p2p0---------------|
H|---------3--3-----------3--3----------3--3-----3---------2h3p2p0---5-3-|
G|----------3--3-----------3--3----------3--3--2-------------------2-----|
D|-----------------------------------------------------------------------|
A|-----------------------------------------------------------------------|
E|-----------------------------------------------------------------------|


e|--3-----3------2------2-----1-----1-----5-----5-----|
H|----3-----3------3------3-----1-----1-----5-----5---|
G|------4-----4------4------4-----2-----2-----6-----6-|
D|--5-----5------4------4-----3-----3-----7-----7-----|
A|----------------------------------------------------|
E|----------------------------------------------------|

e|-2-0-2--3--3--------2h3p2p0---------------|
H|---------3--3-----3---------2h3p2p0---5-3-|
G|----------3--3--2-------------------2-----|
D|------------------------------------------|
A|------------------------------------------|
E|------------------------------------------|

 
e|-----2-0--------0-----2-0----------0----|
B|---0------1-0h1-----0------1-0-0h1------|
G|---0------0---------0------0------------|
D|---2------2---------2------2------------|
A|---2------3---------2------3------------|
E|-0----------------0---------------------|

e|--2--|
H|--0--|
G|--0--|
D|--2--|
A|--2--|
E|--0--|
Comments