Doors - You're A Lost Little Girl Chords & Tabs

 

You're A Lost Little Girl Chords & Tabs

Doors Chords & Tabs

Version: 2 Type: Tab 0 ratings
1 star 2 stars 3 stars 4 stars 5 stars
comments

You're A Lost Little Girl Tab

   
#----------------------------------PLEASE NOTE---------------------------------#
#This file is the author's own work and represents their interpretation of the #
#song. You may only use this file for private study, scholarship, or research. #
#------------------------------------------------------------------------------##

Note: it is difficult to tab exact timing, so bare with me


Beginning/Verse

Emadd11Cmaj

|---------------0---2------0------|-------------------------------|
|-------------0-------------------|-------1-----------0h1------0--|
|-----------0---------------------|----------0--------------------|
|---------2-----------------------|------------2------------------|
|-------2-------------------------|-------3-----------------------|
|--0------------------------------|-------------------------------|


Pre-chorus 


       Gmin              FmajAmaj

  |--------3---------3----------|------1---------------5---------|
  |----------3---------3--------|---------1---------------5------|      
  |------------0---------0------|------------2---------------6---|
  |-----------------------------|------3---------------7---------|    
  |-----------------------------|--------------------------------|
  |--------3---------3----------|--------------------------------|


Chorus-1st Part

Dmaj                  Gmin

|-----2-----2----0-----2----|-------3-----3-----5-----3------|
|-----3-----3----3-----3----|-------3-----3-----3-----3------|
|-----2-----2----2-----2----|-------3-----3-----3-----3------|
|-----0-----0----0-----0----|-------5-----5-----5-----5------|
|---------------------------|--------------------------------|
|---------------------------|--------------------------------|


Chorus riff

--------0h2p0-------------------0h2------
---------------2h3p2p0--------------3~~--
-------------------------2---------------
-----------------------------------------
-----------------------------------------
-----------------------------------------


Chorus-2nd Part

Gmin                Bmin
[ Tab from: http://www.guitartabs.cc/tabs/d/doors/youre_a_lost_little_girl_tab_ver_2.html ]
|-------3---------------3--------|--------2----------2---------------|
|-----------3--------------3-----|----------3----------3-------------|
|--------------3-------------3---|------------4----------4-----------|
|-------5---------------5--------|--------4----------4---------------|
|--------------------------------|-----------------------------------|
|--------------------------------|-----------------------------------|

FmajAmaj

|-------1---------------1--------|-------5----------5----------------|
|----------1---------------1-----|----------5----------5-------------|
|-------------2---------------2--|------------6-----------6----------|
|-------3---------------3--------|-------7----------7----------------|
|--------------------------------|-----------------------------------|
|--------------------------------|-----------------------------------|



Solo ( played over verse )


-/10------7-------10/12-----------------/15-----\------12--\---(10)-----10p7---10--7-
------------10--8-------10-----------------------------------------------------------
-------------------------------------------------------------------------------------
-------------------------------------------------------------------------------------
-------------------------------------------------------------------------------------
-------------------------------------------------------------------------------------


10--9--8--7------------10/12---------12/15-----12h15-12--10h12-10--7h10-7--/13---/17-
-------------10--8-----------10-10---------------------------------------------------
-------------------9--7--------------------------------------------------------------
-------------------------------------------------------------------------------------
-------------------------------------------------------------------------------------
-------------------------------------------------------------------------------------

Ending


---------2-~~---------------
---------0-~~---------------
---------0-~~---------------
---------2-~~---------------
---------2-~~---------------
---------0-~~---------------
Comments