Doors - Wild Child Chords & Tabs

 

Wild Child Chords & Tabs

Doors Chords & Tabs

Version: 3 Type: Tab 0 ratings
1 star 2 stars 3 stars 4 stars 5 stars
comments

Wild Child Tab

   
WILD CHILD
THE DOORS
Phloydles - Coryrory44@aol.com

                        G  A#    G     F    G  A#  G     F  E
e|--------------------|--------------------|-------------------------|
B|--------------------|--------------------|-------------------------|
G|--------------------|--------------------|-------------------------|
D|--------------------|--------------------|--5-5/8--5-5-5-3-3-------|repeat
A|--------------------|--5-5/8--5-5-5-3-3--|--5-5/8--5-5-5-3-3-------|4x
E|--3-3/6--3-3-3-1-1--|--3-3/6--3-3-3-1-1--|--3-3/6--3-3-3-1-1/0-----|
          A                   A-flat   
e|------------------------|--------------------|-----------------------|
B|--------5------5------5-|----4------4-----4--|-5p3----5p3----5p3-----|
G|------6------6------6---|--5------5-----5----|-----5------5------5---|
D|----7------7------7-----|6------6-----6------|-----------------------|
A|------------------------|--------------------|-----------------------|
E-------------------------|--------------------|-----------------------|

Repeat the whole thing twice, hit the C, and go back to the original melody.
[ Tab from: http://www.guitartabs.cc/tabs/d/doors/wild_child_tab_ver_3.html ]
    C    I don't know the solo exactly but play something like this...
e|-----|-------15------------------------------|----------15-------15---|
B|--5--|----------(17)-17B18p15----------------|-------15----18B20------|
G|--5--|---/17------------------17-15h17p15----|-15h17------------------|
D|--5--|------------------------------------17-|------------------------|
A|--3--|---------------------------------------|------------------------|
E|-----|---------------------------------------|------------------------|

                     the solo is in G.

e|-15-15----15-----15-18B20-15-15h18p15----------|-------------------------|
B|-------18-----18----------------------18-------|-------------------------|
G|-----------------------------------------17----|-------15----------------|
D|--------------------------------------------15-|-17-17----17-17-17-15-15-|
A|-----------------------------------------------|-------------------------|
E|-----------------------------------------------|-------------------------|
        A                    A-flat            G
e|-------------------------------------------------------------------|
B|------5------5------5------4------4------4-------------------------|
G|----6------6------6------5------5------5---------------------------|
D|--7------7------7------6------6------6-------5---------------------|
A|-------------------------------------------------------------------|
E|---------------------------------------------3---------------------|

Play the main part until Jim says, "remember when we were in Africa?"


| /  slide up
| \  slide down
| h  hammer-on
| p  pull-off
| ~  vibrato
| +  harmonic
| x  Mute note
=============================================================================
Comments