Doors - Wild Child Chords & Tabs

 

Wild Child Chords & Tabs

Doors Chords & Tabs

Version: 1 Type: Bass Tab 0 ratings
1 star 2 stars 3 stars 4 stars 5 stars
comments

Wild Child Bass Tab

   
Wild Child - Doors

this is a corrected bass tab

  intro/verse                  chorus (instrumental)
G|--2/3------------2/3--------|---3------1----53-53-53-53---2/3---------|
D|55-----5555\0-/55----5555\0-|-05-3----1-1-----5--5--5---55-----5555\0-|
A|----------------------------|5----0-----------------------------------|
E|----------------------------|--------3---3----------------------------|
[ Tab from: http://www.guitartabs.cc/tabs/d/doors/wild_child_btab.html ]
  solo (as Jim reads a poem)
G|---------55-------------------------------------3-4-55-------------------------------|
D|---3-4-5----3-4-4-5555535\----5555535\--------3--------3-4-4-5555535\----5555535\----|
A|33---------------------------3-----------3-33---------------------------3-----------3|
E|--------------------------333---------333----------------------------333---------333-|


 "With hunger at her heels.."
G|--------------------------------------------3------1------|
D|------------------------------------------05-3----1-1---5-|
A|11101-1233303-3211101-12333-3332111011-115----0-----------|
E|-------------------------------------------------3---3----|

   "Wild child full of grace.."
G|----------------------------------------------------------|
D|----------------------------------------------------------|
A|----------------------------------------------------------|
E|13-3-3-313-3-3-313-3-3-313-3-3-313333333133333331333333313|

tabbed by Achilles (blue_sincere@hotmail.com)
The bass tab by Guy Buttery (rose@sprintlink.co.za) was completely wrong and incomplete.

Comments