Doors - When The Musics Over Chords & Tabs

 

When The Musics Over Chords & Tabs

Doors Chords & Tabs

Version: 1 Type: Bass Tab 0 ratings
1 star 2 stars 3 stars 4 stars 5 stars
comments

When The Musics Over Bass Tab

When the Music's Over - Doors

  verse                  "turn out the lights"
G|----------------------|------------------------------------------|
D|---997--70---997--70--|------------------------------------------|
A|7---------7---------7-|5567--77-5567--77-5567--7777777-----------|
E|----------------------|-------------------------------/777777770-|

  "well the music is your special friend"       
G|------------------------------------------------|
D|----------------------------3----3----3----3----|
A|0-0-0-0-/7---0-0-0-0-/7---55-5-55-5-55-5-55-5-5-|
E|------------------------------------------------|

  "until the end"
G|--------------------------------------------------|
D|--------------------------7-7---------------------|
A|7---7---75-5-567---7---75--5-5567-7--7-7----------|
E|---7---7----------7---7----------7-7--7-7-77777777|

  solo riff
G|--------2---------2---------2--------|
D|---------02--------02--------02------|
A|---220-------220-------220-------220-|
E|0------------------------------------|
[ Tab from: http://www.guitartabs.cc/tabs/d/doors/when_the_musics_over_btab.html ]
  "I hear a very gentle sound" 
G|-----------------------------2-------------------2-----42---------------2------------
D|902----0-2----4-2----042----4-2-2--0-2-2-4002-2-4-02-2---402-2--042-2-24-432-2--042-2
A|------2-2----2------2------2------2----------------------------2---------------2-----
E|-------------------------------------------------------------------------------------

              "what have they done to.."
-131------------420----------------------------------------------------------
----42-2--442-2-----2-2-4-02-2-4-02-2-4-02-2-4-02-2-4-02-2-4-02-2-4-02-2-4-02
---------2---------------2------2------2------2------2------2------2------2--
-----------------------------------------------------------------------------

                  "I hear a very.."                               "Now?"
---------------------------------------------------------------------|
-2-4-02-2--02--02--02--02--02--02--02-02-02-02-0222-20222-20222-20222|
----2-----2----------------------------------------------------------|
---------------------------------------------------------------------|

tabbed by Achilles (blue_sincere@hotmail.com)
Comments