Doors - Touch Me Chords & Tabs

 

Touch Me Chords & Tabs

Doors Chords & Tabs

Version: 2 Type: Tab 0 ratings
1 star 2 stars 3 stars 4 stars 5 stars
comments

Touch Me Tab

Artist: The Doors
Song: Touch Me


Well, this is the basic structure of the song so just listen to it
to figure out how many times to play the chords.

(Intro)
|-5-5-5--5-5-5-5-5-5-3----|
|-5-5-5--5-5-5-5-5-5-3----|
|-5-5-5--5-5-5-5-5-5-4----|
|-7-7-7--7-7-7-7-7-7-5----|
|-7-7-7--7-7-7-7-7-7-5----|
|-------------------------|


|------------------------------------------|
|------------------------------------------|
|--------------------4--4-4--4--4-4-4-4----|
|-5--5-5--5--5-5-5-5-4--4-4--4--4-4-4-4----|
|-5--5-5--5--5-5-5-5-2--2-2--2--2-2-2-2----|
|-3--3-3--3--3-3-3-3-----------------------|


|-----3------3------3------3----3----|
|-3h5----3h5----3h5----3h5----3------|
|------------------------------------|
|------------------------------------|
|------------------------------------|
|------------------------------------|


|-----6------6------6------6----6----|
|-6h8----6h8----6h8----6h8----6------|
|------------------------------------|
|------------------------------------|
|------------------------------------|
|------------------------------------|


|----------------------------------------------|
|----------------------------------------------|
|-3-3-3--3-3-3--3-3-3---7-7-7--7-7-7--7-7-7----|
|-3-3-3--3-3-3--3-3-3---7-7-7--7-7-7--7-7-7----|
|-1-1-1--1-1-1--1-1-1---5-5-5--5-5-5--5-5-5----|
|----------------------------------------------|


|-----6------6------6------6----6----|
|-6h8----6h8----6h8----6h8----6------|
|------------------------------------|
|------------------------------------|
|------------------------------------|
|------------------------------------|

[ Tab from: http://www.guitartabs.cc/tabs/d/doors/touch_me_tab_ver_2.html ]
|------9-------9-------9-------9----9----|
|-9h11----9h11----9h11----9h11----9------|
|----------------------------------------|
|----------------------------------------|
|----------------------------------------|
|----------------------------------------|


|-6-6-6--6-6-6--6-6-6-6--6-6-6--6-6-6--6-6-6-6----|
|-6-6-6--6-6-6--6-6-6-6--6-6-6--6-6-6--6-6-6-6----|
|-6-6-6--6-6-6--6-6-6-6--6-6-6--6-6-6--6-6-6-6----|
|-6-6-6--6-6-6--6-6-6-6--6-6-6--6-6-6--6-6-6-6----|
|-------------------------------------------------|
|-------------------------------------------------|


|---------------------------------------------------------------|
|---------------------------------------------------------------|
|-11--11-11-11--11-11-11-11-11--10--10-10-10--10-10-10-10-10----|
|-11--11-11-11--11-11-11-11-11--10--10-10-10--10-10-10-10-10----|
|--9---9--9--9---9--9--9--9--9---8---8--8--8---8--8--8--8--8----|
|---------------------------------------------------------------|


|--------------------------6-6-6--6-6-6--6-6-6-6----|
|--------------------------6-6-6--6-6-6--6-6-6-6----|
|-6--6-6-6-6--8--8-8-8-8---6-6-6--6-6-6--6-6-6-6----|
|-6--6-6-6-6--8--8-8-8-8---6-6-6--6-6-6--6-6-6-6----|
|-4--4-4-4-4--6--6-6-6-6----------------------------|
|---------------------------------------------------|


|---------------------------------------------------------------|
|---------------------------------------------------------------|
|-11--11-11-11--11-11-11-11-11--10--10-10-10--10-10-10-10-10----|
|-11--11-11-11--11-11-11-11-11--10--10-10-10--10-10-10-10-10----|
|--9---9--9--9---9--9--9--9--9---8---8--8--8---8--8--8--8--8----|
|---------------------------------------------------------------|


|-----------------------------------------------------|
|-----------------------------------------------------|
|-6--6-6-6-6--8--8-8-8-8---11-11-11-11-11-11-11-11----|
|-6--6-6-6-6--8--8-8-8-8---11-11-11-11-11-11-11-11----|
|-4--4-4-4-4--6--6-6-6-6----9--9--9--9--9--9--9--9----|
|-----------------------------------------------------|
Comments