Doors - Touch Me Chords & Tabs

 

Touch Me Chords & Tabs

Doors Chords & Tabs

Version: 1 Type: Bass Tab 0 ratings
1 star 2 stars 3 stars 4 stars 5 stars
comments

Touch Me Bass Tab

"Touch Me"
by the Doors
tabbed by whitefalcon45

F|-2--2--2--0--2--2--0--2--4-|
C|---------------------------| repeat 7x
G|-0--0--0-----0--0--3--0--2-|
C|----------3----------------|

F|-2-----------0--------0----------4--------4----|
C|-----------------------------------------------|
G|-0-------------------------2--2-----2--2-----2-|
C|-------3--3-----3--3-----3---------------------|

F|------------------------------------------------------------------|
C|-------------1--------------------------------0--0--0--0--0--0--0-|
G|-3--3--------------0--1--1--1--1--1--1--1--1----------------------|
C|-------1--2-----4-------------------------------------------------|


F|---------------------------------------------------------------------------|
C|-1--1--1--1--1--1--1--4----------------------------------------------------|
G|-------------------------1--2--3--4--4--4--4--4--4--4--4--4--4--4--4--4--4-|
C|---------------------------------------------------------------------------|

F|-------------------------------------------------------1-----1--|
C|-4--4-----4-----4-----3--3-----3-----3-----4-----4--------1-----|
G|-------4-----4-----4--------3-----3-----3-----4-----4-----------|
C|----------------------------------------------------------------|

F|------------------------------------------|---------------------|
C|----------------------4--4-----4-----4----|-3--3-----3-----3----
G|-4--4--4--4--4--4--4--------4-----4-----4-|-------3-----3-----3-|
C|------------------------------------------|---------------------|

F|----------1-----1-------------------------|
C|-4-----4-----1-----4--4--3--3--1--1-----1-|
G|----4-------------------------------------|
C|-------------------------------------4----|

F|---------------------|
C|---------------------| repeat 2x
G|-4--4--4--4--4--4--4-|
C|---------------------|
[ Tab from: http://www.guitartabs.cc/tabs/d/doors/touch_me_btab.html ]
F|-2--2--2--0--2--2--0--2--4-|
C|---------------------------| repeat 7x
G|-0--0--0-----0--0--3--0--2-|
C|----------3----------------|

F|-2-----------0--------0----------4--------4----|
C|-----------------------------------------------|
G|-0-------------------------2--2-----2--2-----2-|
C|-------3--3-----3--3-----3---------------------|

F|------------------------------------------------------------------|
C|-------------1--------------------------------0--0--0--0--0--0--0-|
G|-3--3--------------0--1--1--1--1--1--1--1--1----------------------|
C|-------1--2-----4-------------------------------------------------|


F|---------------------------------------------------------------------------|
C|-1--1--1--1--1--1--1--4----------------------------------------------------|
G|-------------------------1--2--3--4--4--4--4--4--4--4--4--4--4--4--4--4--4-|
C|---------------------------------------------------------------------------|

F|-------------------------------------------------------1-----1--|
C|-4--4-----4-----4-----3--3-----3-----3-----4-----4--------1-----|
G|-------4-----4-----4--------3-----3-----3-----4-----4-----------|
C|----------------------------------------------------------------|

F|------------------------------------------|---------------------|
C|----------------------4--4-----4-----4----|-3--3-----3-----3----
G|-4--4--4--4--4--4--4--------4-----4-----4-|-------3-----3-----3-|
C|------------------------------------------|---------------------|

F|----------1-----1-------------------------|
C|-4-----4-----1-----4--4--3--3--1--1-----1-|
G|----4-------------------------------------|
C|-------------------------------------4----|

F|---------------------|
C|---------------------| repeat 2x
G|-4--4--4--4--4--4--4-|
C|---------------------|


F|---------------------------|---------------------------| This is played
C|---------------------------|---------------------------| through rest of
G|-0--0--0-----0--0-----0--2-|-0--0--0-----0--0-----0--2-|       song.
C|----------3--------3-------|----------3--------3-------|
Comments