Doors - The Unknown Soldier Chords & Tabs

 

The Unknown Soldier Chords & Tabs

Doors Chords & Tabs

Version: 2 Type: Bass Tab 0 ratings
1 star 2 stars 3 stars 4 stars 5 stars
comments

The Unknown Soldier Bass Tab

The Unknown Soldier - The Doors

  "breakfast where the news..."                      "bullet strikes the.."
G|--------------5---------------5---------------------------------------5----------|
D|57-757-757-757--57-757-757-757--577---5----5---5--53-3---------------7---35--35--|
A|---------------7---------------7----55--5-3--35-35-----3-3-5-5---578---3---5-----|
E|---------------------------------------------------------------5---------------5-|
[ Tab from: http://www.guitartabs.cc/tabs/d/doors/the_unknown_soldier_btab_ver_2.html ]
  "And it's all over.."               "uh ahhh"
G|-----------------------------------|--------------|
D|---7---7---7---7---5---5---5---5---|--------------|
A|----797-797-797-797-575-575-575-575|--------------|
E|3/---------------------------------|5---3h4h5-----|

  "breakfast where the news is read.."
G|---------------------------------------------------------------------5------------|
D|------------------23-3------------5---5----5---5--53-3--------------7-7-35---7----|
A|-------3-3-5-5---3-----3-3-5-5------35--5-3--35-35-----3-3-5-5---578---3--759-9---|
E|8\-1-1---------5---------------5-------------------------------5---------------5--|

  outro (repeat until fade out)
G|----------------------------------------|
D|---7---7---7---7---5---5---5--5-----7---|
A|----797-797-797-797-575-575-75---757-797|
E|3/--------------------------------------|


tabbed by Achilles (blue_sincere@hotmail.com)
Comments