Doors - The Soft Parade Chords & Tabs

 

The Soft Parade Chords & Tabs

Doors Chords & Tabs

Version: 2 Type: Bass Tab 0 ratings
1 star 2 stars 3 stars 4 stars 5 stars
comments

The Soft Parade Bass Tab

The Soft Parade - Doors

                                                  "Peppermint, miniskirts.."
G|-----------------------------------------------------------------------------------------------
D|5-6-7-8-7-6-55-6-7-8-7-6-55-6-7-8-7-6---7-----7-5-6-7-8-7-6-55-6-7-8-7-6-55-6-7-88-7-6---7--7--
A|--------------------------------------/7--7--5-----------------------------------------/7--7--7
E|--------------------------------------------5--------------------------------------------------

"Champion sax and.."                                                            "There's only four.."  
---------------------------------------------------------------------------------------------------
5-6-7-8-7-6-55-6-7-8-7-6-55-6-7-88-7-6-7------------33------3553-55------456787655-6-7-8-7-6-5-6-7-
-----------------------------------------7-3-----035--53--03----5--543345--------------------------
---------------------------------------------5-55-------33-----------------------------------------

                         "one is the bandit.."            "..his wife gets.."
---------------------------------------------------------------------57--------------------10-109
8-7-6-5-6-7-8-7-6---5-----5-6-7-8-7-6-55-6-7-8-7-6-55-6-7-8-7-6--5-67--7---------57-7910-10------
------------------/5--5-----------------------------------------5-------3-35-57-7----------------
------------------------3------------------------------------------------------------------------

10975-----|
-----75---|
-------73-|
----------|
----------|

[ Tab from: http://www.guitartabs.cc/tabs/d/doors/the_soft_parade_btab_ver_2.html ]
 "Catacombs, nursery bones.."       "carrying babies.."         "streets and shoes.."
G|-------------------910-109-10975-------------------------------------------------10-9-75------
D|---------57-7910-10-------------75----------57-7910-10------------------57-7910---------75----
A|3-35-57-7-------------------------73-35-57-7----------8-87-75-53-35-57-7------------------7653
E|----------------------------------------------------------------------------------------------

                                 "the monk.."
------------------910-109-10975-------|
--------57-7910-10-------------75-----|
-35-57-7-------------------------73-5-|
--------------------------------------|

        "Yeah, he bought a little"
G|----------------------------------------------------------------|
D|--------------5------------------5------------------7-75-simile-|
A|7-57--57--57-7-75--7-57--57--57-7-75--7-57--57--57-7-7----------|
E|-7---7---7-------7--7---7---7-------7--7---7---7----------------|

                   "Successful hills.."                               "Welcome to the Soft Parade"
G|---------------------------------------------/99---------------------------------------------
D|--------------------------------97---775----7---95----------------97---775------5797---775----
A|7-------7-------7-------7---7910----7----7--------7---77-57---7910----7----7---7------7----7--
E|---77--7---77--7---77--7---7-------------------------7--7----7----------------7---------------

        "building for a.."                      "somehow to defend.."                  "everything.."
----------------------------------------------------------------------------------------------------|
------------10-------------97---99575---------------10-----------97---995-------------995-------9---|
-77575----10--109-7---77710----9-----7---77575----10--1097---7910----9----7---7755---9----7---79-97-|
7-----7--7-----------7------------------7-----7--7----------7----------------7----7----------7------|

  outro riff "Tropic corridor, tropic treasure"
G|------------------|
D|-------------7654-|
A|7-57--57--57-7654-|
E|-7---7---7--------|

tabbed by Achilles (blue_sincere@hotmail.com)
Comments