Doors - The Ghost Song Chords & Tabs

 

The Ghost Song Chords & Tabs

Doors Chords & Tabs

Version: 2 Type: Tab 0 ratings
1 star 2 stars 3 stars 4 stars 5 stars
comments

The Ghost Song Tab

The Doors
The Ghost Song


i looked all over the place, and nobody tabbed out the guitar, just the crazy bass line. 
so i decided to try and tab it out

this is only parts of it though, if anyone thinks there should
be corrections made, then be my guest.


cool riff thing
e---------------------------------------------|
b---------------------------------------------|
g--7--9----7--9--11----7--9---7--11--7--------|
d-------9-------------------------------9--7--|
a---------------------------------------------|
e---------------------------------------------|

this is how i play the next little chord line
e----------------------5-5-5-5-5-------------|
b--3--5--3-5----3--5---7-7-7-7-7-------------|
g--4--6--4-6----4--6-------------------------|
d--------------------------------------------|
a--------------------------------------------|
e--------------------------------------------|
[ Tab from: http://www.guitartabs.cc/tabs/d/doors/the_ghost_song_tab_ver_2.html ]
that chord is played behind a little solo, which i dont know yet.


then the riff is played in a different key
e--------------------------------------------------------|
b--------------------------------------------------------|
g------10--12-----10-12--14----10--12--10-14-10----------|
d--------------12--------------------------------12--10--|
a--------------------------------------------------------|
e--------------------------------------------------------|

then the chord line is played in a different key
e------------------------8-8-8-8-8-------------|
b---6--8--6-8-----6--8---6-6-6-6-6-------------|
g---5--7--5-7-----5--7-------------------------|
d----------------------------------------------|
a----------------------------------------------|
e----------------------------------------------|

thats about it, there are a few other guitar
licks thrown in, but this is at least a good part of
the song.  have fun with it

peace
Comments