Doors - The End Chords & Tabs

 

The End Chords & Tabs

Doors Chords & Tabs

Version: 2 Type: Bass Tab 0 ratings
1 star 2 stars 3 stars 4 stars 5 stars
comments

The End Bass Tab

The End - The Doors

bass enters at about 0:37 seconds

                (x7)     "This is the End..."         "this is the End..."   
G|----7---7---|-7---7---|-7---45---4-----------7----7--7----7---45---4--7--------7---
D|------------|---------|----5-------5-7--7--------------------5-------5----7--------
A|5--5---5-5--|5-----5--|5-----------------5--5-5--5--5-5--5-------------5---5--5-5--
E|------------|---------|------------------------------------------------------------

"of all elaborate..."        "of everything that..."     "no safety or surprise..."
-75------(12)--57--------7----75------(12)--57--------7----75------(12)--57--------7--
-----(10)--------7--7-------------(10)--------7--7-------------(10)--------7--7-------
5--------------------5--5-5--5--------------------5--5-5--5--------------------5--5-5-
--------------------------------------------------------------------------------------
[ Tab from: http://www.guitartabs.cc/tabs/d/doors/the_end_btab_ver_2.html ]
"I'll never look..."                            "Can you picture..."
-7(12)--5-5-5-5-----7---7----7---7----7---7---|-7---75---5---57---7---7----57--7---
----------------7--7--------------------------|---------5---5----7---7-5--5---7----
5----------------------5-5--5---5-5--5---5-5--|5---5----------------------------5--
----------------------------------------------|------------------------------------

"desperately in need..."             "in a desperate land"               
-7---75---5---57---7---7----57--7----7---75---5---57---7---7----7---7---|
---------5---5----7---7-5--5---7-------------5---5----7---7----7---7----|
5---5----------------------------5--5---5-------------------5--------5--|
------------------------------------------------------------------------|

play this riff until 
"(8:23) Come on baby take a 
chance with us"              verse (outro riff)
G|7--7-----|                  |-7---7---|
D|-7-------|                  |----7----|
A|------5--|                  |5-----5--|
E|---------|                  |---------|

just play E a bunch of times really fast like in the riffs above or 
alone when Jim sings "(9:00) Come on baby...fuck me...fuck, fuck...yeah
...kill, kill, kill, kill, kill"

the tabs for the "This is the end" part sould be the same for the last 
as the first verse.

A tab by Achilles (blue_sincere@hotmail.com)
Comments