Doors - Spy Chords & Tabs

 

Spy Chords & Tabs

Doors Chords & Tabs

Version: 3 Type: Tab 0 ratings
1 star 2 stars 3 stars 4 stars 5 stars
comments

Spy Tab

   
Song: Spy
Artist: Doors
Tuning: Standard
Transcribed By: Chris White (Shaggymoods70@yahoo.com)
AOL s/n-->Shaggymoods70

The doors are my favorite band and if you dont have any, go get some
of their cds/records! they kick ass. this song is from morrison hotel.

*harmonic

main riff used during verse:

E|-----------12*------------------------------------------------------|
B|-12--8--5------5--8b------------------------------------------------|
G|--------------------------------------------------------------------|
D|--------------------------------------------------------------------|
A|--------------------------------------------------------------------|
E|--------------------------------------------------------------------|

two variations of verse used throughout verse:

E|-------------12*----------------------------------------------------|
B|--12*--8--5-------5--8b---------------------------------------------|
G|--------------------------------------------------------------------|
D|--------------------------------------------------------------------|
A|--------------------------------------------------------------------|
E|--------------------------------------------------------------------|

E|------------0-------------------------------------------------------|
B|--12--8--5----5--8b-------------------------------------------------|
G|--------------------------------------------------------------------|
D|--------------------------------------------------------------------|
A|--------------------------------------------------------------------|
E|--------------------------------------------------------------------|
[ Tab from: http://www.guitartabs.cc/tabs/d/doors/spy_tab_ver_3.html ]
Chorus:
   G                D           E    A  A  A A  A   E
E|-3----------------5-----------0----5--5--5-5--5---0----R------------|
B|-3----------------5-----------0----5--5--5-5--5---0----E------------|
G|-0----------------7-----------1----6--6--6-6--6---1----S------------|
D|-0----------------7-----------2----7--7--7-7--7---2----T------------|
A|-2----------------5-----------2----7--7--7-7--7---2-----------------|
E|-3----------------------------0----5--5--5-5--5---0-----------------|

Bridge Part One:
    G G D D E A (strum the A)for the last time strum all chords
E|--3-3-5-5-0-5-------------------------------------------------------|
B|--3-3-5-5-0-5-------------------------------------------------------|
G|--0-0-7-7-1-6-------------------------------------------------------|
D|--0-0-7-7-2-7-------------------------------------------------------|
A|--2-2-5-5-2-7-------------------------------------------------------|
E|--3-3-----0-5-------------------------------------------------------|

Ending:

couldnt totally figure this one out too good here's what you can mess
around with:

E|---------9--7----9--12*---------------------------------------------|
B|--5b--7-------9-----------------------------------------------------|
G|--------------------------------------------------------------------|
D|--------------------------------------------------------------------|
A|--------------------------------------------------------------------|
E|--------------------------------------------------------------------|
Comments