Doors - Spanish Caravan Chords & Tabs

 

Spanish Caravan Chords & Tabs

Doors Chords & Tabs

Version: 1 Type: Tab 1 rating
1 star 2 stars 3 stars 4 stars 5 stars
comments

Spanish Caravan Tab

Song: Spanish Caravan
Artist: Doors
Tabbed by Zach Green(greenzach2000@yahoo.com)

E ------------------------------------------------|
B ------------------------------------------------|
G ------------------------------------------------|
D ------------------------------------------------|
A -2-3-0-2----------------------------------------|
E ---------2-0------------------------------------|


E -0--0--------0--------0---------0--------0---------0----------|
B -5----5--------5--------5---------5--------5---------5--------|
G -5------5--------5--------5---------5--------5---------5------|
D -5--------5--------5------------------5------------------5----|
A -----------------------------3------------------3-------------|
E --------------------------------------------------------------|

E ------------------------0-0-0-----0-0-0-----3-3-3-----2-2-2-----0-0------|
B -------------------------------------------------------------------------|
G ----0-0-0-----0-0-0------------0-----------------------------------------|
D -5---------5---------5-------------------5---------5---------5-----------|
A -------------------------------------------------------------------------|
E -------------------------------------------------------------------------|

E ----0-0-0-----0-0-0-----0-0-0-----0-0-0----|
B -------------------------------------------|
G -------------------------------------------|
D -5---------5-------------------5-----------|
A ---------------------4---------------------|
E -------------------------------------------|

E ----0-0-0-----0-0-0-----0-0-0-----0-0-0------|
B ---------------------------------------------|
G ---------------------------------------------|
D -----------5---------5-----------------------|
A -4-----------------------------3-------------|
E ---------------------------------------------|

E ----0--------0--------0--------0---------0--------0--------0--------0-------|
B ------4--------4--------4--------4---------4--------4--------4--------4-----|
G --------0--------0--------0--------0---------0--------0--------0--------0---|
D ----------4--------4--------4------------------4--------4--------4----------|
A --------------------------------------2-------------------------------------|
E ----------------------------------------------------------------------------|

E -0--------0--------0--------0--------|
B ---4--------4--------4--------4------|
G -----0--------0--------0--------0----|
D -------------------------------------|
A -------------------------------------|
E -------------------------------------|

E ----0--------0--------0--------0--------0--------0--------0--------0-------|
B ------4--------4--------4--------4--------4--------4--------4--------4-----|
G --------0--------0--------0--------0--------0--------0--------0--------0---|
D ----------4-----------------4----------------------------------------------|
A -3-----------------3-----------------2--------0----------------------------|
E -------------------------------------------------------2--------1----------|


E ----0----------------------------------|
B ----1--------------3--2-----------0----|
G ----0----------------------------------|
D ----2-----2--1--0-----------------7----|
A ----3--------------------3-------------|
E -0-----3--------------------3-7--------|

The Harpshichord/Keyboard starts here


E ------------------------------------------------------------|
B -0--1-----0-----------12--13------12------------------------|
G -------2-----0----------------14------12--14--11--12--11----|
D ------------------------------------------------------------|
A ------------------------------------------------------------|
E ------------------------------------------------------------|

E --------------------------------------------------------------------------|
B ----0------0-----0-----0------0-------0-----0------0-----0-----0------0---|
G --------------------------------------------------------------------------|
D -9-----10-----7-----9--------------------9-----10-----7-----9-------------|
A --------------------------10-------8------------------------------10------|
E --------------------------------------------------------------------------|

E -------------------------------------------------------------------|
B ----0-----0------0-----0-----0------0-----0-----0------0-----0-----|
G -------------------------------------------------------------------|
D -------9-----10-----7-----9------------7---------------------------|
A -7------------------------------10-----------9-----10-----8--------|
E -------------------------------------------------------------------|

E --------------12----------------------|
B --------15----------13----15----12----|
G --------------------------------------|
D --14----------------------------------|
A --------------------------------------|
E --------------------------------------|

E -------------12----------------------| x2
B -------15----------13----15----12----|
G -12----------------------------------|
D -------------------------------------|
A -------------------------------------|
E -------------------------------------|

E -----------------------------------------| x3
B -----0-----0------0-----0-----0------0---|
G -----------------------------------------|
D --------9-----10-----7-----9-------------|
A --7------------------------------10------|
E -----------------------------------------|
[ Tab from: http://www.guitartabs.cc/tabs/d/doors/spanish_caravan_tab.html ]
E --------------------------------------------------|
B -13------12---------------------------------------|
G -----14------12--11----------11--12--14--11--12---|
D ---------------------12---------------------------|
A --------------------------------------------------|
E --------------------------------------------------|

E ------------------------------------------------------------|
B -----12----------------------------------------10-----------|
G -14------14--12--11--12--14--12-----10--11--12------9--12---|
D ------------------------------------------------------------|
A ------------------------------------------------------------|
E ------------------------------------------------------------|

E ------------------------------------------|
B ----0-----0------0-----0------0-----0-----|
G ------------------------------------------|
D -7----------------------------------------|
A -------9-----10-----7-----10-----6--------|
E ------------------------------------------|

E --------------------------------------------------------------------|
B --------------------------------------------------------------------|
G --------4--------4-------------4--------4-------------3--------3----|
D -----4--------4-------------4--------4-------------2--------2-------|
A --2--------2-------------2--------2-------------3--------2----------|
E --------------------------------------------------------------------|

E -----8--7------7---------------------------------|
B -10--------10-----10--8--8-------8--------8------|
G ------------------------------9-----7--9-----9---|
D -------------------------------------------------|
A -------------------------------------------------|
E -------------------------------------------------|

E ---------------------------------------------------|
B -7--8--10--8--7--10--8--7------------5--------5----|
G ---------------------------------6--------6--------|
D -----------------------------7--------7------------|
A ---------------------------------------------------|
E ---------------------------------------------------|


E ---------------------------------------------------|
B ---------------------------------------------------|
G ---------3-----------3-------------4-----------4---|
D -----2-----------2-------------4-----------4-------|
A -3-----------3-------------2-----------2-----------|
E ---------------------------------------------------|

E -----------------------------------5---------------5-----|
B ---------------------------5---------------7---8---------|
G ---------4-----------4---------5-------5-------5---------|
D -----4-----------4-------------------------5-------5-----|
A -2-----------2-------------------------------------------|
E ---------------------------5-----------------------------|



E -----------------5-------5-----6-------6---10---8---6---------|
B -----5---7---8-------8-------------8--------------------10----|
G -7------------------------------------------------------------|
D --------------------------------------------------------------|
A --------------------------------------------------------------|
E --------------------------------------------------------------|



E -8-------8---10---12---10---8--------------13---8-----------------|
B -----7---------------------------------9------------9--------9----|
G ----------------------------------10--------------------10--------|
D ------------------------------------------------------------------|
A ------------------------------------------------------------------|
E ------------------------------------------------------------------|



E ---------5-----------------------------3---------------3---|
B -7---------------7-----------------------------5---6-------|
G -----7---------------7-------------3-------3---------------|
D -7-----------7-----------5---------------------3-------3---|
A -----------------5-----------------------------------------|
E -------------------------------3---------------------------|



E ---------3-----------------------------1---------------1---|
B -5---------------5-----------------------------3---4-------|
G -----5-------5-------5-------------1-------1---------------|
D -----------------------------------------------1-------1---|
A -3---------------3-------3---------------------------------|
E -------------------------------1---------------------------|



E ----------------10-----------------9-----------9---14------------|
B -11--------11-------11-------11------------10----------------10--|
G ------10----------------10-------------11---------------11-------|
D -----------------------------------------------------------------|
A -----------------------------------------------------------------|
E -----------------------------------------------------------------|



E --------------------------------------------------|
B -12----------------------12-----------------------|
G --------------------------------------------------|
D --------------------------------------------------|
A --------------------------------------------------|
E --------------------------------------------------|



E ---------1----------------------------2---------------2---|
B -3---------------3---3------------------------4---5-------|
G -----3-------3--------------------2-------2---------------|
D -------------------------3------------------------2-------|
A -1---------------1----------------------------------------|
E ------------------------------2---------------------------|



E ----------------------------------------------|
B -4----------------------4---------------------|
G -4----------------------4---------------------|
D -4----------------------4---------------------|
A -2----------------------2---------------------|
E ----------------------------------------------|


Thank you all!
Comments