Doors - Soul Kitchen Chords & Tabs

 

Soul Kitchen Chords & Tabs

Doors Chords & Tabs

Version: 1 Type: Tab 0 ratings
1 star 2 stars 3 stars 4 stars 5 stars
comments

Soul Kitchen Tab

   
SOUL KITCHEN

intro
A    D    A     D     A     D     A     D

---------------------------------------------------------------------|
---------8b10----5------------------------------8b10r8-5-------------|
-7b9---------------7b9r7p5---5---7b9r7p5---5-7-----------7b9r7-5-----|
---------------------------7-------------7-----------------------7-7-|
---------------------------------------------------------------------|
---------------------------------------------------------------------|


riff 1
 A         D7
-------------------|
-----8-------7p5h7-|
-----6-------7p5h7-|
-----7-------------|
-0---------0-------|
-------------------|

verses
[ Tab from: http://www.guitartabs.cc/tabs/d/doors/soul_kitchen_tab.html ]
(w/riff 1)
Well, the clock says it's time to close now
I guess I'd better go now
I'd really like to stay here all night
The cars crawl past all stuffed with eyes
Street lights share their hollow glow
Your brain seems bruised with numb surprise
Still one place to go
Still one place to go

chorus
       E         D        E         D
Let me sleep all night in your soul kitchen
E         D        E         D
Warm my mind near your gentle stove
E         D        E         D
Turn me out and I'll wander baby
E
Stumblin' in the neon groves

Well, your fingers weave quick minarets
Speak in secret alphabets
I light another cigarette
Learn to forget, learn to forget
Learn to forget, learn to forget

Well the clock says it's time to close now
I know I have to go now
I really want to stay here
All night, all night, all night
Comments